  0
SECTION
  2
HEADER
  9
$FILLMODE
 70
     1
  9
$LTSCALE
 40
10.00
  9
$TEXTSIZE
 40
1.0
  9
$DIMSCALE
 40
1.0
  9
$TEXTSTYLE
  7
STANDARD
  9
$LUNITS
 70
     2
  9
$LUPREC
 70
     1
  9
$AUNITS
 70
     0
  9
$AUPREC
 70
     4
  9
$DWGCODEPAGE
  3
iso8859-1
  0
ENDSEC
  0
SECTION
  2
TABLES
  0
TABLE
  2
LTYPE
 70
     5
  0
LTYPE
  2
DOTTED
 70
    64
  3
. . . . . . . . . . . . . . . . . . . . . . . .
 72
    65
 73
     0
 40
0.4
  0
LTYPE
  2
CONTINUOUS
 70
    64
  3
_______________________________________________
 72
    65
 73
     0
 40
0.0
  0
LTYPE
  2
DASHED
 70
    64
  3
_ _ _ _ _ _ _ _ _ _ _ _ _ _ _ _ _ _ _ _ _ _ _ _
 72
    65
 73
     2
 40
3.5
 49
1.25
 49
-1.0
  0
LTYPE
  2
CENTER
 70
    64
  3
____ _ ____ _ ____ _ ____ _ ____ _ ____ _ ____ 
 72
    65
 73
     4
 40
3.5
 49
1.5
 49
-0.4
 49
0.4
 49
-0.4
  0
LTYPE
  2
CONTINUOUS
 70
    64
  3
_______________________________________________
 72
    65
 73
     0
 40
0.0
  0
ENDTAB
  0
TABLE
  2
LAYER
 70
     9
  0
LAYER
  2
LAYER1
 70
    64
 62
1
  6
CONTINUOUS
  0
LAYER
  2
LAYER2
 70
    64
 62
2
  6
DASHED
  0
LAYER
  2
LAYER3
 70
    64
 62
3
  6
CENTER
  0
LAYER
  2
LAYER4
 70
    64
 62
4
  6
CONTINUOUS
  0
LAYER
  2
LAYER5
 70
    64
 62
6
  6
DASHED
  0
LAYER
  2
LAYER6
 70
    64
 62
1
  6
CENTER
  0
LAYER
  2
LAYER8
 70
    64
 62
3
  6
DASHED
  0
LAYER
  2
LAYER10
 70
    64
 62
3
  6
CONTINUOUS
  0
LAYER
  2
LAYER11
 70
    64
 62
3
  6
CONTINUOUS
  0
ENDTAB
  0
TABLE
  2
STYLE
 70
     1
  0
STYLE
  2
STANDARD
 70
    64
 40
0.0
 41
1.0
 50
0.0
 71
     0
 42
1.0
  3
MONOTXT
  4

  0
ENDTAB
  0
TABLE
  2
VIEW
 70
     0
  0
ENDTAB
  0
ENDSEC
  0
SECTION
  2
BLOCKS
  0
ENDSEC
  0
SECTION
  2
ENTITIES
  0
LINE
  8
LAYER6
 62
1
  6
CONTINUOUS
 10
174.895741
 20
162.231244
 11
174.970741
 21
162.156244
  0
LINE
  8
LAYER6
 62
1
  6
CONTINUOUS
 10
174.895741
 20
177.231244
 11
174.970741
 21
177.156244
  0
LINE
  8
LAYER6
 62
1
  6
CONTINUOUS
 10
174.895741
 20
192.231244
 11
174.970741
 21
192.156244
  0
LINE
  8
LAYER6
 62
1
  6
CONTINUOUS
 10
173.395741
 20
158.331244
 11
173.395741
 21
158.781244
  0
LINE
  8
LAYER6
 62
1
  6
CONTINUOUS
 10
174.295741
 20
173.931244
 11
176.320741
 21
175.956244
  0
LINE
  8
LAYER6
 62
1
  6
CONTINUOUS
 10
173.545741
 20
173.931244
 11
174.295741
 21
173.931244
  0
LINE
  8
LAYER6
 62
1
  6
CONTINUOUS
 10
174.295741
 20
158.931244
 11
176.320741
 21
160.956244
  0
LINE
  8
LAYER6
 62
1
  6
CONTINUOUS
 10
173.545741
 20
158.931244
 11
174.295741
 21
158.931244
  0
LINE
  8
LAYER6
 62
1
  6
CONTINUOUS
 10
174.295741
 20
188.931244
 11
176.320741
 21
190.956244
  0
LINE
  8
LAYER6
 62
1
  6
CONTINUOUS
 10
173.545741
 20
188.931244
 11
174.295741
 21
188.931244
  0
LINE
  8
LAYER6
 62
1
  6
CONTINUOUS
 10
170.770741
 20
170.931244
 11
170.770741
 21
170.031244
  0
LINE
  8
LAYER6
 62
1
  6
CONTINUOUS
 10
171.070741
 20
170.931244
 11
171.070741
 21
170.031244
  0
LINE
  8
LAYER6
 62
1
  6
CONTINUOUS
 10
170.770741
 20
195.231244
 11
170.770741
 21
194.331244
  0
LINE
  8
LAYER6
 62
1
  6
CONTINUOUS
 10
171.070741
 20
195.231244
 11
171.070741
 21
194.331244
  0
LINE
  8
LAYER6
 62
1
  6
CONTINUOUS
 10
175.045741
 20
193.806244
 11
174.895741
 21
193.394122
  0
LINE
  8
LAYER6
 62
1
  6
CONTINUOUS
 10
175.045741
 20
178.806244
 11
174.895741
 21
178.394122
  0
LINE
  8
LAYER6
 62
1
  6
CONTINUOUS
 10
175.045741
 20
163.806244
 11
174.895741
 21
163.394122
  0
LINE
  8
LAYER6
 62
1
  6
CONTINUOUS
 10
175.945741
 20
176.895089
 11
173.395741
 21
176.895089
  0
LINE
  8
LAYER6
 62
1
  6
CONTINUOUS
 10
175.945741
 20
161.895089
 11
173.395741
 21
161.895089
  0
LINE
  8
LAYER6
 62
1
  6
CONTINUOUS
 10
175.945741
 20
191.895089
 11
173.395741
 21
191.895089
  0
LINE
  8
LAYER6
 62
1
  6
CONTINUOUS
 10
173.135934
 20
177.302982
 11
173.395741
 21
177.752982
  0
LINE
  8
LAYER6
 62
1
  6
CONTINUOUS
 10
173.135934
 20
162.302982
 11
173.395741
 21
162.752982
  0
LINE
  8
LAYER6
 62
1
  6
CONTINUOUS
 10
171.720222
 20
170.931244
 11
171.720222
 21
170.031244
  0
LINE
  8
LAYER6
 62
1
  6
CONTINUOUS
 10
171.720222
 20
170.931244
 11
170.770741
 21
170.931244
  0
LINE
  8
LAYER6
 62
1
  6
CONTINUOUS
 10
171.720222
 20
170.031244
 11
170.770741
 21
170.031244
  0
LINE
  8
LAYER6
 62
1
  6
CONTINUOUS
 10
171.720222
 20
195.231244
 11
171.720222
 21
194.331244
  0
LINE
  8
LAYER6
 62
1
  6
CONTINUOUS
 10
171.720222
 20
195.231244
 11
170.770741
 21
195.231244
  0
LINE
  8
LAYER6
 62
1
  6
CONTINUOUS
 10
171.720222
 20
194.331244
 11
170.770741
 21
194.331244
  0
LINE
  8
LAYER6
 62
1
  6
CONTINUOUS
 10
174.970741
 20
192.156244
 11
174.970741
 21
191.970089
  0
LINE
  8
LAYER6
 62
1
  6
CONTINUOUS
 10
173.209368
 20
192.430175
 11
173.395741
 21
192.752982
  0
LINE
  8
LAYER6
 62
1
  6
CONTINUOUS
 10
174.970741
 20
177.156244
 11
174.970741
 21
176.970089
  0
LINE
  8
LAYER6
 62
1
  6
CONTINUOUS
 10
174.970741
 20
162.156244
 11
174.970741
 21
161.970089
  0
LINE
  8
LAYER6
 62
1
  6
CONTINUOUS
 10
173.395741
 20
176.895089
 11
174.895741
 21
176.895089
  0
LINE
  8
LAYER6
 62
1
  6
CONTINUOUS
 10
174.895741
 20
176.895089
 11
174.895741
 21
185.910796
  0
LINE
  8
LAYER6
 62
1
  6
CONTINUOUS
 10
173.395741
 20
188.895089
 11
173.395741
 21
176.895089
  0
LINE
  8
LAYER10
 62
6
 10
174.683609
 20
176.895089
 11
174.895741
 21
177.107221
  0
LINE
  8
LAYER10
 62
6
 10
174.471477
 20
176.895089
 11
174.895741
 21
177.319353
  0
LINE
  8
LAYER10
 62
6
 10
174.259345
 20
176.895089
 11
174.895741
 21
177.531485
  0
LINE
  8
LAYER10
 62
6
 10
174.047213
 20
176.895089
 11
174.895741
 21
177.743617
  0
LINE
  8
LAYER10
 62
6
 10
173.835081
 20
176.895089
 11
174.895741
 21
177.955749
  0
LINE
  8
LAYER10
 62
6
 10
173.622949
 20
176.895089
 11
174.895741
 21
178.167881
  0
LINE
  8
LAYER10
 62
6
 10
173.410817
 20
176.895089
 11
174.895741
 21
178.380013
  0
LINE
  8
LAYER10
 62
6
 10
173.395741
 20
177.092145
 11
174.895741
 21
178.592145
  0
LINE
  8
LAYER10
 62
6
 10
173.395741
 20
177.304277
 11
174.895741
 21
178.804277
  0
LINE
  8
LAYER10
 62
6
 10
173.395741
 20
177.516409
 11
174.895741
 21
179.016409
  0
LINE
  8
LAYER10
 62
6
 10
173.395741
 20
177.728541
 11
174.895741
 21
179.228541
  0
LINE
  8
LAYER10
 62
6
 10
173.395741
 20
177.940674
 11
174.895741
 21
179.440674
  0
LINE
  8
LAYER10
 62
6
 10
173.395741
 20
178.152806
 11
174.895741
 21
179.652806
  0
LINE
  8
LAYER10
 62
6
 10
173.395741
 20
178.364938
 11
174.895741
 21
179.864938
  0
LINE
  8
LAYER10
 62
6
 10
173.395741
 20
178.577070
 11
174.895741
 21
180.077070
  0
LINE
  8
LAYER10
 62
6
 10
173.395741
 20
178.789202
 11
174.895741
 21
180.289202
  0
LINE
  8
LAYER10
 62
6
 10
173.395741
 20
179.001334
 11
174.895741
 21
180.501334
  0
LINE
  8
LAYER10
 62
6
 10
173.395741
 20
179.213466
 11
174.895741
 21
180.713466
  0
LINE
  8
LAYER10
 62
6
 10
173.395741
 20
179.425598
 11
174.895741
 21
180.925598
  0
LINE
  8
LAYER10
 62
6
 10
173.395741
 20
179.637730
 11
174.895741
 21
181.137730
  0
LINE
  8
LAYER10
 62
6
 10
173.395741
 20
179.849862
 11
174.895741
 21
181.349862
  0
LINE
  8
LAYER10
 62
6
 10
173.395741
 20
180.061994
 11
174.895741
 21
181.561994
  0
LINE
  8
LAYER10
 62
6
 10
173.395741
 20
180.274126
 11
174.895741
 21
181.774126
  0
LINE
  8
LAYER10
 62
6
 10
173.395741
 20
180.486258
 11
174.895741
 21
181.986258
  0
LINE
  8
LAYER10
 62
6
 10
173.395741
 20
180.698390
 11
174.895741
 21
182.198390
  0
LINE
  8
LAYER10
 62
6
 10
173.395741
 20
180.910522
 11
174.895741
 21
182.410522
  0
LINE
  8
LAYER10
 62
6
 10
173.395741
 20
181.122654
 11
174.895741
 21
182.622654
  0
LINE
  8
LAYER10
 62
6
 10
173.395741
 20
181.334786
 11
174.895741
 21
182.834786
  0
LINE
  8
LAYER10
 62
6
 10
173.395741
 20
181.546918
 11
174.895741
 21
183.046918
  0
LINE
  8
LAYER10
 62
6
 10
173.395741
 20
181.759050
 11
174.895741
 21
183.259050
  0
LINE
  8
LAYER10
 62
6
 10
173.395741
 20
181.971182
 11
174.895741
 21
183.471182
  0
LINE
  8
LAYER10
 62
6
 10
173.395741
 20
182.183314
 11
174.895741
 21
183.683314
  0
LINE
  8
LAYER10
 62
6
 10
173.395741
 20
182.395446
 11
174.895741
 21
183.895446
  0
LINE
  8
LAYER10
 62
6
 10
173.395741
 20
182.607578
 11
174.895741
 21
184.107578
  0
LINE
  8
LAYER10
 62
6
 10
173.395741
 20
182.819710
 11
174.895741
 21
184.319710
  0
LINE
  8
LAYER10
 62
6
 10
173.395741
 20
183.031842
 11
174.895741
 21
184.531842
  0
LINE
  8
LAYER10
 62
6
 10
173.395741
 20
183.243974
 11
174.895741
 21
184.743974
  0
LINE
  8
LAYER10
 62
6
 10
173.395741
 20
183.456106
 11
174.895741
 21
184.956107
  0
LINE
  8
LAYER10
 62
6
 10
173.395741
 20
183.668239
 11
174.895741
 21
185.168239
  0
LINE
  8
LAYER10
 62
6
 10
173.395741
 20
183.880371
 11
174.895741
 21
185.380371
  0
LINE
  8
LAYER10
 62
6
 10
173.395741
 20
184.092503
 11
174.895741
 21
185.592503
  0
LINE
  8
LAYER10
 62
6
 10
173.395741
 20
184.304635
 11
174.895741
 21
185.804635
  0
LINE
  8
LAYER10
 62
6
 10
173.395741
 20
185.789559
 11
173.516979
 21
185.910796
  0
LINE
  8
LAYER10
 62
6
 10
173.395741
 20
185.577427
 11
173.729111
 21
185.910796
  0
LINE
  8
LAYER10
 62
6
 10
173.395741
 20
185.365295
 11
173.941243
 21
185.910796
  0
LINE
  8
LAYER10
 62
6
 10
173.395741
 20
185.153163
 11
174.153375
 21
185.910796
  0
LINE
  8
LAYER10
 62
6
 10
173.395741
 20
184.941031
 11
174.365507
 21
185.910796
  0
LINE
  8
LAYER10
 62
6
 10
173.395741
 20
184.728899
 11
174.577639
 21
185.910796
  0
LINE
  8
LAYER10
 62
6
 10
173.395741
 20
184.516767
 11
174.789771
 21
185.910796
  0
LINE
  8
LAYER6
 62
1
  6
CONTINUOUS
 10
175.105741
 20
183.999642
 11
174.880741
 21
184.224642
  0
LINE
  8
LAYER6
 62
1
  6
CONTINUOUS
 10
174.955741
 20
185.610796
 11
174.955741
 21
185.835796
  0
LINE
  8
LAYER6
 62
1
  6
CONTINUOUS
 10
174.880741
 20
185.910796
 11
173.395741
 21
185.910796
  0
LINE
  8
LAYER6
 62
1
  6
CONTINUOUS
 10
174.955741
 20
185.610796
 11
174.880741
 21
185.535796
  0
LINE
  8
LAYER6
 62
1
  6
CONTINUOUS
 10
174.895741
 20
185.910796
 11
173.395741
 21
185.910796
  0
LINE
  8
LAYER10
 62
6
 10
174.880741
 20
184.502398
 11
174.895741
 21
184.517398
  0
LINE
  8
LAYER10
 62
6
 10
174.880741
 20
184.290266
 11
174.895741
 21
184.305266
  0
LINE
  8
LAYER6
 62
1
  6
CONTINUOUS
 10
175.347441
 20
189.982943
 11
176.305741
 21
189.024642
  0
LINE
  8
LAYER6
 62
1
  6
CONTINUOUS
 10
173.395741
 20
191.895089
 11
174.895741
 21
191.895089
  0
LINE
  8
LAYER6
 62
1
  6
CONTINUOUS
 10
174.895741
 20
191.895089
 11
174.895741
 21
200.910796
  0
LINE
  8
LAYER6
 62
1
  6
CONTINUOUS
 10
173.395741
 20
203.895089
 11
173.395741
 21
191.895089
  0
LINE
  8
LAYER10
 62
6
 10
174.683609
 20
191.895089
 11
174.895741
 21
192.107221
  0
LINE
  8
LAYER10
 62
6
 10
174.471477
 20
191.895089
 11
174.895741
 21
192.319353
  0
LINE
  8
LAYER10
 62
6
 10
174.259345
 20
191.895089
 11
174.895741
 21
192.531485
  0
LINE
  8
LAYER10
 62
6
 10
174.047213
 20
191.895089
 11
174.895741
 21
192.743617
  0
LINE
  8
LAYER10
 62
6
 10
173.835081
 20
191.895089
 11
174.895741
 21
192.955749
  0
LINE
  8
LAYER10
 62
6
 10
173.622949
 20
191.895089
 11
174.895741
 21
193.167881
  0
LINE
  8
LAYER10
 62
6
 10
173.410817
 20
191.895089
 11
174.895741
 21
193.380013
  0
LINE
  8
LAYER10
 62
6
 10
173.395741
 20
192.092145
 11
174.895741
 21
193.592145
  0
LINE
  8
LAYER10
 62
6
 10
173.395741
 20
192.304277
 11
174.895741
 21
193.804277
  0
LINE
  8
LAYER10
 62
6
 10
173.395741
 20
192.516409
 11
174.895741
 21
194.016409
  0
LINE
  8
LAYER10
 62
6
 10
173.395741
 20
192.728541
 11
174.895741
 21
194.228541
  0
LINE
  8
LAYER10
 62
6
 10
173.395741
 20
192.940674
 11
174.895741
 21
194.440674
  0
LINE
  8
LAYER10
 62
6
 10
173.395741
 20
193.152806
 11
174.895741
 21
194.652806
  0
LINE
  8
LAYER10
 62
6
 10
173.395741
 20
193.364938
 11
174.895741
 21
194.864938
  0
LINE
  8
LAYER10
 62
6
 10
173.395741
 20
193.577070
 11
174.895741
 21
195.077070
  0
LINE
  8
LAYER10
 62
6
 10
173.395741
 20
193.789202
 11
174.895741
 21
195.289202
  0
LINE
  8
LAYER10
 62
6
 10
173.395741
 20
194.001334
 11
174.895741
 21
195.501334
  0
LINE
  8
LAYER10
 62
6
 10
173.395741
 20
194.213466
 11
174.895741
 21
195.713466
  0
LINE
  8
LAYER10
 62
6
 10
173.395741
 20
194.425598
 11
174.895741
 21
195.925598
  0
LINE
  8
LAYER10
 62
6
 10
173.395741
 20
194.637730
 11
174.895741
 21
196.137730
  0
LINE
  8
LAYER10
 62
6
 10
173.395741
 20
194.849862
 11
174.895741
 21
196.349862
  0
LINE
  8
LAYER10
 62
6
 10
173.395741
 20
195.061994
 11
174.895741
 21
196.561994
  0
LINE
  8
LAYER10
 62
6
 10
173.395741
 20
195.274126
 11
174.895741
 21
196.774126
  0
LINE
  8
LAYER10
 62
6
 10
173.395741
 20
195.486258
 11
174.895741
 21
196.986258
  0
LINE
  8
LAYER10
 62
6
 10
173.395741
 20
195.698390
 11
174.895741
 21
197.198390
  0
LINE
  8
LAYER10
 62
6
 10
173.395741
 20
195.910522
 11
174.895741
 21
197.410522
  0
LINE
  8
LAYER10
 62
6
 10
173.395741
 20
196.122654
 11
174.895741
 21
197.622654
  0
LINE
  8
LAYER10
 62
6
 10
173.395741
 20
196.334786
 11
174.895741
 21
197.834786
  0
LINE
  8
LAYER10
 62
6
 10
173.395741
 20
196.546918
 11
174.895741
 21
198.046918
  0
LINE
  8
LAYER10
 62
6
 10
173.395741
 20
196.759050
 11
174.895741
 21
198.259050
  0
LINE
  8
LAYER10
 62
6
 10
173.395741
 20
196.971182
 11
174.895741
 21
198.471182
  0
LINE
  8
LAYER10
 62
6
 10
173.395741
 20
197.183314
 11
174.895741
 21
198.683314
  0
LINE
  8
LAYER10
 62
6
 10
173.395741
 20
197.395446
 11
174.895741
 21
198.895446
  0
LINE
  8
LAYER10
 62
6
 10
173.395741
 20
197.607578
 11
174.895741
 21
199.107578
  0
LINE
  8
LAYER10
 62
6
 10
173.395741
 20
197.819710
 11
174.895741
 21
199.319710
  0
LINE
  8
LAYER10
 62
6
 10
173.395741
 20
198.031842
 11
174.895741
 21
199.531842
  0
LINE
  8
LAYER10
 62
6
 10
173.395741
 20
198.243974
 11
174.895741
 21
199.743974
  0
LINE
  8
LAYER10
 62
6
 10
173.395741
 20
198.456106
 11
174.895741
 21
199.956107
  0
LINE
  8
LAYER10
 62
6
 10
173.395741
 20
198.668239
 11
174.895741
 21
200.168239
  0
LINE
  8
LAYER10
 62
6
 10
173.395741
 20
198.880371
 11
174.895741
 21
200.380371
  0
LINE
  8
LAYER10
 62
6
 10
173.395741
 20
199.092503
 11
174.895741
 21
200.592503
  0
LINE
  8
LAYER10
 62
6
 10
173.395741
 20
199.304635
 11
174.895741
 21
200.804635
  0
LINE
  8
LAYER10
 62
6
 10
173.395741
 20
200.789559
 11
173.516979
 21
200.910796
  0
LINE
  8
LAYER10
 62
6
 10
173.395741
 20
200.577427
 11
173.729111
 21
200.910796
  0
LINE
  8
LAYER10
 62
6
 10
173.395741
 20
200.365295
 11
173.941243
 21
200.910796
  0
LINE
  8
LAYER10
 62
6
 10
173.395741
 20
200.153163
 11
174.153375
 21
200.910796
  0
LINE
  8
LAYER10
 62
6
 10
173.395741
 20
199.941031
 11
174.365507
 21
200.910796
  0
LINE
  8
LAYER10
 62
6
 10
173.395741
 20
199.728899
 11
174.577639
 21
200.910796
  0
LINE
  8
LAYER10
 62
6
 10
173.395741
 20
199.516767
 11
174.789771
 21
200.910796
  0
LINE
  8
LAYER6
 62
1
  6
CONTINUOUS
 10
175.105741
 20
198.999642
 11
174.880741
 21
199.224642
  0
LINE
  8
LAYER6
 62
1
  6
CONTINUOUS
 10
174.955741
 20
200.610796
 11
174.955741
 21
200.835796
  0
LINE
  8
LAYER6
 62
1
  6
CONTINUOUS
 10
174.880741
 20
200.910796
 11
173.395741
 21
200.910796
  0
LINE
  8
LAYER6
 62
1
  6
CONTINUOUS
 10
174.955741
 20
200.610796
 11
174.880741
 21
200.535796
  0
LINE
  8
LAYER6
 62
1
  6
CONTINUOUS
 10
174.880741
 20
205.449642
 11
176.305741
 21
204.024642
  0
LINE
  8
LAYER6
 62
1
  6
CONTINUOUS
 10
173.395741
 20
161.895089
 11
174.895741
 21
161.895089
  0
LINE
  8
LAYER6
 62
1
  6
CONTINUOUS
 10
174.895741
 20
161.895089
 11
174.895741
 21
170.910796
  0
LINE
  8
LAYER6
 62
1
  6
CONTINUOUS
 10
173.395741
 20
173.895089
 11
173.395741
 21
161.895089
  0
LINE
  8
LAYER10
 62
6
 10
174.683609
 20
161.895089
 11
174.895741
 21
162.107221
  0
LINE
  8
LAYER10
 62
6
 10
174.471477
 20
161.895089
 11
174.895741
 21
162.319353
  0
LINE
  8
LAYER10
 62
6
 10
174.259345
 20
161.895089
 11
174.895741
 21
162.531485
  0
LINE
  8
LAYER10
 62
6
 10
174.047213
 20
161.895089
 11
174.895741
 21
162.743617
  0
LINE
  8
LAYER10
 62
6
 10
173.835081
 20
161.895089
 11
174.895741
 21
162.955749
  0
LINE
  8
LAYER10
 62
6
 10
173.622949
 20
161.895089
 11
174.895741
 21
163.167881
  0
LINE
  8
LAYER10
 62
6
 10
173.410817
 20
161.895089
 11
174.895741
 21
163.380013
  0
LINE
  8
LAYER10
 62
6
 10
173.395741
 20
162.092145
 11
174.895741
 21
163.592145
  0
LINE
  8
LAYER10
 62
6
 10
173.395741
 20
162.304277
 11
174.895741
 21
163.804277
  0
LINE
  8
LAYER10
 62
6
 10
173.395741
 20
162.516409
 11
174.895741
 21
164.016409
  0
LINE
  8
LAYER10
 62
6
 10
173.395741
 20
162.728541
 11
174.895741
 21
164.228541
  0
LINE
  8
LAYER10
 62
6
 10
173.395741
 20
162.940674
 11
174.895741
 21
164.440674
  0
LINE
  8
LAYER10
 62
6
 10
173.395741
 20
163.152806
 11
174.895741
 21
164.652806
  0
LINE
  8
LAYER10
 62
6
 10
173.395741
 20
163.364938
 11
174.895741
 21
164.864938
  0
LINE
  8
LAYER10
 62
6
 10
173.395741
 20
163.577070
 11
174.895741
 21
165.077070
  0
LINE
  8
LAYER10
 62
6
 10
173.395741
 20
163.789202
 11
174.895741
 21
165.289202
  0
LINE
  8
LAYER10
 62
6
 10
173.395741
 20
164.001334
 11
174.895741
 21
165.501334
  0
LINE
  8
LAYER10
 62
6
 10
173.395741
 20
164.213466
 11
174.895741
 21
165.713466
  0
LINE
  8
LAYER10
 62
6
 10
173.395741
 20
164.425598
 11
174.895741
 21
165.925598
  0
LINE
  8
LAYER10
 62
6
 10
173.395741
 20
164.637730
 11
174.895741
 21
166.137730
  0
LINE
  8
LAYER10
 62
6
 10
173.395741
 20
164.849862
 11
174.895741
 21
166.349862
  0
LINE
  8
LAYER10
 62
6
 10
173.395741
 20
165.061994
 11
174.895741
 21
166.561994
  0
LINE
  8
LAYER10
 62
6
 10
173.395741
 20
165.274126
 11
174.895741
 21
166.774126
  0
LINE
  8
LAYER10
 62
6
 10
173.395741
 20
165.486258
 11
174.895741
 21
166.986258
  0
LINE
  8
LAYER10
 62
6
 10
173.395741
 20
165.698390
 11
174.895741
 21
167.198390
  0
LINE
  8
LAYER10
 62
6
 10
173.395741
 20
165.910522
 11
174.895741
 21
167.410522
  0
LINE
  8
LAYER10
 62
6
 10
173.395741
 20
166.122654
 11
174.895741
 21
167.622654
  0
LINE
  8
LAYER10
 62
6
 10
173.395741
 20
166.334786
 11
174.895741
 21
167.834786
  0
LINE
  8
LAYER10
 62
6
 10
173.395741
 20
166.546918
 11
174.895741
 21
168.046918
  0
LINE
  8
LAYER10
 62
6
 10
173.395741
 20
166.759050
 11
174.895741
 21
168.259050
  0
LINE
  8
LAYER10
 62
6
 10
173.395741
 20
166.971182
 11
174.895741
 21
168.471182
  0
LINE
  8
LAYER10
 62
6
 10
173.395741
 20
167.183314
 11
174.895741
 21
168.683314
  0
LINE
  8
LAYER10
 62
6
 10
173.395741
 20
167.395446
 11
174.895741
 21
168.895446
  0
LINE
  8
LAYER10
 62
6
 10
173.395741
 20
167.607578
 11
174.895741
 21
169.107578
  0
LINE
  8
LAYER10
 62
6
 10
173.395741
 20
167.819710
 11
174.895741
 21
169.319710
  0
LINE
  8
LAYER10
 62
6
 10
173.395741
 20
168.031842
 11
174.895741
 21
169.531842
  0
LINE
  8
LAYER10
 62
6
 10
173.395741
 20
168.243974
 11
174.895741
 21
169.743974
  0
LINE
  8
LAYER10
 62
6
 10
173.395741
 20
168.456106
 11
174.895741
 21
169.956107
  0
LINE
  8
LAYER10
 62
6
 10
173.395741
 20
168.668239
 11
174.895741
 21
170.168239
  0
LINE
  8
LAYER10
 62
6
 10
173.395741
 20
168.880371
 11
174.895741
 21
170.380371
  0
LINE
  8
LAYER10
 62
6
 10
173.395741
 20
169.092503
 11
174.895741
 21
170.592503
  0
LINE
  8
LAYER10
 62
6
 10
173.395741
 20
169.304635
 11
174.895741
 21
170.804635
  0
LINE
  8
LAYER10
 62
6
 10
173.395741
 20
170.789559
 11
173.516979
 21
170.910796
  0
LINE
  8
LAYER10
 62
6
 10
173.395741
 20
170.577427
 11
173.729111
 21
170.910796
  0
LINE
  8
LAYER10
 62
6
 10
173.395741
 20
170.365295
 11
173.941243
 21
170.910796
  0
LINE
  8
LAYER10
 62
6
 10
173.395741
 20
170.153163
 11
174.153375
 21
170.910796
  0
LINE
  8
LAYER10
 62
6
 10
173.395741
 20
169.941031
 11
174.365507
 21
170.910796
  0
LINE
  8
LAYER10
 62
6
 10
173.395741
 20
169.728899
 11
174.577639
 21
170.910796
  0
LINE
  8
LAYER10
 62
6
 10
173.395741
 20
169.516767
 11
174.789771
 21
170.910796
  0
LINE
  8
LAYER6
 62
1
  6
CONTINUOUS
 10
175.105741
 20
168.999642
 11
174.880741
 21
169.224642
  0
LINE
  8
LAYER6
 62
1
  6
CONTINUOUS
 10
174.955741
 20
170.610796
 11
174.955741
 21
170.835796
  0
LINE
  8
LAYER6
 62
1
  6
CONTINUOUS
 10
174.880741
 20
170.910796
 11
173.395741
 21
170.910796
  0
LINE
  8
LAYER6
 62
1
  6
CONTINUOUS
 10
174.955741
 20
170.610796
 11
174.880741
 21
170.535796
  0
LINE
  8
LAYER6
 62
1
  6
CONTINUOUS
 10
175.347441
 20
174.982943
 11
176.305741
 21
174.024642
  0
LINE
  8
LAYER5
 62
7
  6
CENTER
 10
168.820741
 20
102.827143
 11
168.820741
 21
54.677143
  0
LINE
  8
LAYER5
 62
7
  6
CENTER
 10
166.935651
 20
101.252143
 11
171.118196
 21
101.252143
  0
LINE
  8
LAYER6
 62
1
  6
CONTINUOUS
 10
166.935651
 20
54.452143
 11
170.685651
 21
54.452143
  0
LINE
  8
LAYER5
 62
7
  6
CENTER
 10
166.935651
 20
56.252143
 11
171.118196
 21
56.252143
  0
LINE
  8
LAYER6
 62
1
  6
CONTINUOUS
 10
166.935651
 20
103.052143
 11
170.685651
 21
103.052143
  0
LINE
  8
LAYER4
 62
2
  6
DASHED
 10
170.095741
 20
58.052143
 11
167.545741
 21
58.052143
  0
LINE
  8
LAYER4
 62
2
  6
DASHED
 10
170.095741
 20
73.052143
 11
167.545741
 21
73.052143
  0
LINE
  8
LAYER4
 62
2
  6
DASHED
 10
170.095741
 20
88.052143
 11
167.545741
 21
88.052143
  0
LINE
  8
LAYER6
 62
1
  6
CONTINUOUS
 10
166.935651
 20
87.077143
 11
167.608355
 21
87.077143
  0
LINE
  8
LAYER6
 62
1
  6
CONTINUOUS
 10
170.033128
 20
87.077143
 11
170.685651
 21
87.077143
  0
LINE
  8
LAYER6
 62
1
  6
CONTINUOUS
 10
166.935651
 20
72.077143
 11
167.608355
 21
72.077143
  0
LINE
  8
LAYER6
 62
1
  6
CONTINUOUS
 10
170.033128
 20
72.077143
 11
170.685651
 21
72.077143
  0
LINE
  8
LAYER6
 62
1
  6
CONTINUOUS
 10
166.935651
 20
55.052143
 11
167.545741
 21
55.052143
  0
LINE
  8
LAYER6
 62
1
  6
CONTINUOUS
 10
170.095741
 20
55.052143
 11
170.685651
 21
55.052143
  0
LINE
  8
LAYER6
 62
1
  6
CONTINUOUS
 10
166.935651
 20
57.077143
 11
167.608355
 21
57.077143
  0
LINE
  8
LAYER6
 62
1
  6
CONTINUOUS
 10
170.033128
 20
57.077143
 11
170.685651
 21
57.077143
  0
LINE
  8
LAYER6
 62
1
  6
CONTINUOUS
 10
168.295741
 20
72.527143
 11
169.345741
 21
72.527143
  0
LINE
  8
LAYER6
 62
1
  6
CONTINUOUS
 10
168.295741
 20
87.527143
 11
169.345741
 21
87.527143
  0
LINE
  8
LAYER5
 62
7
  6
CENTER
 10
170.705832
 20
90.902143
 11
171.580598
 21
90.902143
  0
LINE
  8
LAYER6
 62
1
  6
CONTINUOUS
 10
170.705832
 20
91.352143
 11
171.080832
 21
91.352143
  0
LINE
  8
LAYER6
 62
1
  6
CONTINUOUS
 10
170.705832
 20
90.452143
 11
171.080832
 21
90.452143
  0
LINE
  8
LAYER6
 62
1
  6
CONTINUOUS
 10
171.080832
 20
90.452143
 11
171.080832
 21
91.352143
  0
LINE
  8
LAYER5
 62
7
  6
CENTER
 10
170.705832
 20
66.602143
 11
171.580598
 21
66.602143
  0
LINE
  8
LAYER6
 62
1
  6
CONTINUOUS
 10
170.705832
 20
67.052143
 11
171.080832
 21
67.052143
  0
LINE
  8
LAYER6
 62
1
  6
CONTINUOUS
 10
170.705832
 20
66.152143
 11
171.080832
 21
66.152143
  0
LINE
  8
LAYER6
 62
1
  6
CONTINUOUS
 10
171.080832
 20
66.152143
 11
171.080832
 21
67.052143
  0
LINE
  8
LAYER6
 62
1
  6
CONTINUOUS
 10
166.935651
 20
54.452143
 11
166.935651
 21
58.052142
  0
LINE
  8
LAYER6
 62
1
  6
CONTINUOUS
 10
170.695741
 20
58.952143
 11
170.685651
 21
58.952143
  0
LINE
  8
LAYER6
 62
1
  6
CONTINUOUS
 10
166.935651
 20
67.067849
 11
166.935651
 21
73.078319
  0
LINE
  8
LAYER6
 62
1
  6
CONTINUOUS
 10
166.935651
 20
85.052143
 11
166.945741
 21
85.052143
  0
LINE
  8
LAYER6
 62
1
  6
CONTINUOUS
 10
170.685651
 20
103.052143
 11
170.685651
 21
54.452143
  0
LINE
  8
LAYER6
 62
1
  6
CONTINUOUS
 10
166.935651
 20
97.120203
 11
166.935651
 21
103.052143
  0
LINE
  8
LAYER6
 62
1
  6
CONTINUOUS
 10
166.935651
 20
80.557870
 11
166.935651
 21
88.104497
  0
LINE
  8
LAYER3
 62
3
  6
CONTINUOUS
 10
163.609491
 20
66.908896
 11
163.609491
 21
66.777676
  0
LINE
  8
LAYER3
 62
3
  6
CONTINUOUS
 10
163.609491
 20
66.777676
 11
163.609491
 21
66.515237
  0
LINE
  8
LAYER3
 62
3
  6
CONTINUOUS
 10
163.609491
 20
66.515237
 11
163.609491
 21
66.384017
  0
LINE
  8
LAYER3
 62
3
  6
CONTINUOUS
 10
163.609491
 20
66.384017
 11
163.609491
 21
66.187187
  0
LINE
  8
LAYER3
 62
3
  6
CONTINUOUS
 10
163.609491
 20
66.187187
 11
163.675101
 21
65.990358
  0
LINE
  8
LAYER3
 62
3
  6
CONTINUOUS
 10
163.675101
 20
65.990358
 11
163.675101
 21
65.727918
  0
LINE
  8
LAYER3
 62
3
  6
CONTINUOUS
 10
163.675101
 20
65.727918
 11
163.806321
 21
65.399869
  0
LINE
  8
LAYER3
 62
3
  6
CONTINUOUS
 10
163.806321
 20
65.399869
 11
163.871931
 21
64.809380
  0
LINE
  8
LAYER3
 62
3
  6
CONTINUOUS
 10
163.871931
 20
64.809380
 11
163.871931
 21
64.546940
  0
LINE
  8
LAYER3
 62
3
  6
CONTINUOUS
 10
163.871931
 20
64.546940
 11
163.871931
 21
64.218891
  0
LINE
  8
LAYER3
 62
3
  6
CONTINUOUS
 10
163.871931
 20
64.218891
 11
163.806321
 21
63.890841
  0
LINE
  8
LAYER3
 62
3
  6
CONTINUOUS
 10
163.806321
 20
63.890841
 11
163.740711
 21
63.497182
  0
LINE
  8
LAYER3
 62
3
  6
CONTINUOUS
 10
163.740711
 20
63.497182
 11
163.675101
 21
63.300352
  0
LINE
  8
LAYER3
 62
3
  6
CONTINUOUS
 10
163.675101
 20
63.300352
 11
163.543881
 21
62.906693
  0
LINE
  8
LAYER3
 62
3
  6
CONTINUOUS
 10
163.543881
 20
62.906693
 11
163.543881
 21
62.578643
  0
LINE
  8
LAYER3
 62
3
  6
CONTINUOUS
 10
163.543881
 20
62.578643
 11
163.478272
 21
62.316204
  0
LINE
  8
LAYER3
 62
3
  6
CONTINUOUS
 10
163.478272
 20
62.316204
 11
163.412662
 21
62.119374
  0
LINE
  8
LAYER3
 62
3
  6
CONTINUOUS
 10
163.412662
 20
62.119374
 11
163.347052
 21
61.791324
  0
LINE
  8
LAYER3
 62
3
  6
CONTINUOUS
 10
163.347052
 20
61.791324
 11
163.215832
 21
61.528885
  0
LINE
  8
LAYER3
 62
3
  6
CONTINUOUS
 10
163.215832
 20
61.528885
 11
163.084612
 21
61.135225
  0
LINE
  8
LAYER3
 62
3
  6
CONTINUOUS
 10
163.084612
 20
61.135225
 11
163.019002
 21
60.938396
  0
LINE
  8
LAYER3
 62
3
  6
CONTINUOUS
 10
163.019002
 20
60.938396
 11
162.953392
 21
60.544736
  0
LINE
  8
LAYER3
 62
3
  6
CONTINUOUS
 10
162.953392
 20
60.544736
 11
162.887783
 21
60.347907
  0
LINE
  8
LAYER3
 62
3
  6
CONTINUOUS
 10
162.887783
 20
60.347907
 11
162.822173
 21
60.151077
  0
LINE
  8
LAYER3
 62
3
  6
CONTINUOUS
 10
162.822173
 20
60.151077
 11
162.822173
 21
59.888638
  0
LINE
  8
LAYER3
 62
3
  6
CONTINUOUS
 10
162.822173
 20
59.888638
 11
162.822173
 21
59.757418
  0
LINE
  8
LAYER3
 62
3
  6
CONTINUOUS
 10
162.822173
 20
59.757418
 11
162.756563
 21
59.560588
  0
LINE
  8
LAYER3
 62
3
  6
CONTINUOUS
 10
162.756563
 20
59.560588
 11
162.756563
 21
59.363758
  0
LINE
  8
LAYER3
 62
3
  6
CONTINUOUS
 10
162.756563
 20
59.363758
 11
162.756563
 21
59.232539
  0
LINE
  8
LAYER3
 62
3
  6
CONTINUOUS
 10
162.756563
 20
59.232539
 11
162.756563
 21
59.101319
  0
LINE
  8
LAYER3
 62
3
  6
CONTINUOUS
 10
162.756563
 20
59.101319
 11
162.756563
 21
58.970099
  0
LINE
  8
LAYER3
 62
3
  6
CONTINUOUS
 10
162.756563
 20
58.970099
 11
162.756563
 21
58.838879
  0
LINE
  8
LAYER3
 62
3
  6
CONTINUOUS
 10
162.756563
 20
58.838879
 11
162.756563
 21
58.642050
  0
LINE
  8
LAYER3
 62
3
  6
CONTINUOUS
 10
162.756563
 20
58.642050
 11
162.756563
 21
58.510830
  0
LINE
  8
LAYER3
 62
3
  6
CONTINUOUS
 10
162.756563
 20
58.510830
 11
162.756563
 21
58.379610
  0
LINE
  8
LAYER3
 62
3
  6
CONTINUOUS
 10
162.756563
 20
58.379610
 11
162.756563
 21
58.248390
  0
LINE
  8
LAYER3
 62
3
  6
CONTINUOUS
 10
162.756563
 20
58.248390
 11
162.756563
 21
58.052142
  0
LINE
  8
LAYER4
 62
2
  6
DASHED
 10
166.945741
 20
67.067849
 11
170.695741
 21
67.067849
  0
LINE
  8
LAYER6
 62
1
  6
CONTINUOUS
 10
166.945741
 20
70.181695
 11
170.695741
 21
70.181695
  0
LINE
  8
LAYER4
 62
2
  6
DASHED
 10
166.945741
 20
67.067849
 11
170.695741
 21
67.067849
  0
LINE
  8
LAYER3
 62
3
  6
CONTINUOUS
 10
163.569753
 20
67.067849
 11
163.609491
 21
66.908896
  0
LINE
  8
LAYER6
 62
1
  6
CONTINUOUS
 10
163.569753
 20
67.067849
 11
166.945741
 21
67.067849
  0
LINE
  8
LAYER3
 62
3
  6
CONTINUOUS
 10
163.609491
 20
81.935074
 11
163.609491
 21
81.803854
  0
LINE
  8
LAYER3
 62
3
  6
CONTINUOUS
 10
163.609491
 20
81.803854
 11
163.609491
 21
81.541414
  0
LINE
  8
LAYER3
 62
3
  6
CONTINUOUS
 10
163.609491
 20
81.541414
 11
163.609491
 21
81.410194
  0
LINE
  8
LAYER3
 62
3
  6
CONTINUOUS
 10
163.609491
 20
81.410194
 11
163.609491
 21
81.213365
  0
LINE
  8
LAYER3
 62
3
  6
CONTINUOUS
 10
163.609491
 20
81.213365
 11
163.675101
 21
81.016535
  0
LINE
  8
LAYER3
 62
3
  6
CONTINUOUS
 10
163.675101
 20
81.016535
 11
163.675101
 21
80.754096
  0
LINE
  8
LAYER3
 62
3
  6
CONTINUOUS
 10
163.675101
 20
80.754096
 11
163.806321
 21
80.426046
  0
LINE
  8
LAYER3
 62
3
  6
CONTINUOUS
 10
163.806321
 20
80.426046
 11
163.871931
 21
79.835557
  0
LINE
  8
LAYER3
 62
3
  6
CONTINUOUS
 10
163.871931
 20
79.835557
 11
163.871931
 21
79.573117
  0
LINE
  8
LAYER3
 62
3
  6
CONTINUOUS
 10
163.871931
 20
79.573117
 11
163.871931
 21
79.245068
  0
LINE
  8
LAYER3
 62
3
  6
CONTINUOUS
 10
163.871931
 20
79.245068
 11
163.806321
 21
78.917019
  0
LINE
  8
LAYER3
 62
3
  6
CONTINUOUS
 10
163.806321
 20
78.917019
 11
163.740711
 21
78.523359
  0
LINE
  8
LAYER3
 62
3
  6
CONTINUOUS
 10
163.740711
 20
78.523359
 11
163.675101
 21
78.326529
  0
LINE
  8
LAYER3
 62
3
  6
CONTINUOUS
 10
163.675101
 20
78.326529
 11
163.543881
 21
77.932870
  0
LINE
  8
LAYER3
 62
3
  6
CONTINUOUS
 10
163.543881
 20
77.932870
 11
163.543881
 21
77.604821
  0
LINE
  8
LAYER3
 62
3
  6
CONTINUOUS
 10
163.543881
 20
77.604821
 11
163.478272
 21
77.342381
  0
LINE
  8
LAYER3
 62
3
  6
CONTINUOUS
 10
163.478272
 20
77.342381
 11
163.412662
 21
77.145551
  0
LINE
  8
LAYER3
 62
3
  6
CONTINUOUS
 10
163.412662
 20
77.145551
 11
163.347052
 21
76.817502
  0
LINE
  8
LAYER3
 62
3
  6
CONTINUOUS
 10
163.347052
 20
76.817502
 11
163.215832
 21
76.555062
  0
LINE
  8
LAYER3
 62
3
  6
CONTINUOUS
 10
163.215832
 20
76.555062
 11
163.084612
 21
76.161403
  0
LINE
  8
LAYER3
 62
3
  6
CONTINUOUS
 10
163.084612
 20
76.161403
 11
163.019002
 21
75.964573
  0
LINE
  8
LAYER3
 62
3
  6
CONTINUOUS
 10
163.019002
 20
75.964573
 11
162.953392
 21
75.570914
  0
LINE
  8
LAYER3
 62
3
  6
CONTINUOUS
 10
162.953392
 20
75.570914
 11
162.887783
 21
75.374084
  0
LINE
  8
LAYER3
 62
3
  6
CONTINUOUS
 10
162.887783
 20
75.374084
 11
162.822173
 21
75.177255
  0
LINE
  8
LAYER3
 62
3
  6
CONTINUOUS
 10
162.822173
 20
75.177255
 11
162.822173
 21
74.914815
  0
LINE
  8
LAYER3
 62
3
  6
CONTINUOUS
 10
162.822173
 20
74.914815
 11
162.822173
 21
74.783595
  0
LINE
  8
LAYER3
 62
3
  6
CONTINUOUS
 10
162.822173
 20
74.783595
 11
162.756563
 21
74.586766
  0
LINE
  8
LAYER3
 62
3
  6
CONTINUOUS
 10
162.756563
 20
74.586766
 11
162.756563
 21
74.389936
  0
LINE
  8
LAYER3
 62
3
  6
CONTINUOUS
 10
162.756563
 20
74.389936
 11
162.756563
 21
74.258716
  0
LINE
  8
LAYER3
 62
3
  6
CONTINUOUS
 10
162.756563
 20
74.258716
 11
162.756563
 21
74.127496
  0
LINE
  8
LAYER3
 62
3
  6
CONTINUOUS
 10
162.756563
 20
74.127496
 11
162.756563
 21
73.996276
  0
LINE
  8
LAYER3
 62
3
  6
CONTINUOUS
 10
162.756563
 20
73.996276
 11
162.756563
 21
73.865057
  0
LINE
  8
LAYER3
 62
3
  6
CONTINUOUS
 10
162.756563
 20
73.865057
 11
162.756563
 21
73.668227
  0
LINE
  8
LAYER3
 62
3
  6
CONTINUOUS
 10
162.756563
 20
73.668227
 11
162.756563
 21
73.537007
  0
LINE
  8
LAYER3
 62
3
  6
CONTINUOUS
 10
162.756563
 20
73.537007
 11
162.756563
 21
73.405787
  0
LINE
  8
LAYER3
 62
3
  6
CONTINUOUS
 10
162.756563
 20
73.405787
 11
162.756563
 21
73.274568
  0
LINE
  8
LAYER3
 62
3
  6
CONTINUOUS
 10
162.756563
 20
73.274568
 11
162.756563
 21
73.078319
  0
LINE
  8
LAYER4
 62
2
  6
DASHED
 10
166.945741
 20
82.094027
 11
170.695741
 21
82.094027
  0
LINE
  8
LAYER6
 62
1
  6
CONTINUOUS
 10
166.945741
 20
85.207873
 11
170.695741
 21
85.207873
  0
LINE
  8
LAYER4
 62
2
  6
DASHED
 10
166.945741
 20
82.094026
 11
170.695741
 21
82.094026
  0
LINE
  8
LAYER3
 62
3
  6
CONTINUOUS
 10
163.569753
 20
82.094026
 11
163.609491
 21
81.935074
  0
LINE
  8
LAYER6
 62
1
  6
CONTINUOUS
 10
163.569753
 20
82.094026
 11
166.945741
 21
82.094026
  0
LINE
  8
LAYER3
 62
3
  6
CONTINUOUS
 10
163.609491
 20
96.961251
 11
163.609491
 21
96.830031
  0
LINE
  8
LAYER3
 62
3
  6
CONTINUOUS
 10
163.609491
 20
96.830031
 11
163.609491
 21
96.567592
  0
LINE
  8
LAYER3
 62
3
  6
CONTINUOUS
 10
163.609491
 20
96.567592
 11
163.609491
 21
96.436372
  0
LINE
  8
LAYER3
 62
3
  6
CONTINUOUS
 10
163.609491
 20
96.436372
 11
163.609491
 21
96.239542
  0
LINE
  8
LAYER3
 62
3
  6
CONTINUOUS
 10
163.609491
 20
96.239542
 11
163.675101
 21
96.042713
  0
LINE
  8
LAYER3
 62
3
  6
CONTINUOUS
 10
163.675101
 20
96.042713
 11
163.675101
 21
95.780273
  0
LINE
  8
LAYER3
 62
3
  6
CONTINUOUS
 10
163.675101
 20
95.780273
 11
163.806321
 21
95.452224
  0
LINE
  8
LAYER3
 62
3
  6
CONTINUOUS
 10
163.806321
 20
95.452224
 11
163.871931
 21
94.861734
  0
LINE
  8
LAYER3
 62
3
  6
CONTINUOUS
 10
163.871931
 20
94.861734
 11
163.871931
 21
94.599295
  0
LINE
  8
LAYER3
 62
3
  6
CONTINUOUS
 10
163.871931
 20
94.599295
 11
163.871931
 21
94.271245
  0
LINE
  8
LAYER3
 62
3
  6
CONTINUOUS
 10
163.871931
 20
94.271245
 11
163.806321
 21
93.943196
  0
LINE
  8
LAYER3
 62
3
  6
CONTINUOUS
 10
163.806321
 20
93.943196
 11
163.740711
 21
93.549537
  0
LINE
  8
LAYER3
 62
3
  6
CONTINUOUS
 10
163.740711
 20
93.549537
 11
163.675101
 21
93.352707
  0
LINE
  8
LAYER3
 62
3
  6
CONTINUOUS
 10
163.675101
 20
93.352707
 11
163.543881
 21
92.959048
  0
LINE
  8
LAYER3
 62
3
  6
CONTINUOUS
 10
163.543881
 20
92.959048
 11
163.543881
 21
92.630998
  0
LINE
  8
LAYER3
 62
3
  6
CONTINUOUS
 10
163.543881
 20
92.630998
 11
163.478272
 21
92.368559
  0
LINE
  8
LAYER3
 62
3
  6
CONTINUOUS
 10
163.478272
 20
92.368559
 11
163.412662
 21
92.171729
  0
LINE
  8
LAYER3
 62
3
  6
CONTINUOUS
 10
163.412662
 20
92.171729
 11
163.347052
 21
91.843679
  0
LINE
  8
LAYER3
 62
3
  6
CONTINUOUS
 10
163.347052
 20
91.843679
 11
163.215832
 21
91.581240
  0
LINE
  8
LAYER3
 62
3
  6
CONTINUOUS
 10
163.215832
 20
91.581240
 11
163.084612
 21
91.187580
  0
LINE
  8
LAYER3
 62
3
  6
CONTINUOUS
 10
163.084612
 20
91.187580
 11
163.019002
 21
90.990751
  0
LINE
  8
LAYER3
 62
3
  6
CONTINUOUS
 10
163.019002
 20
90.990751
 11
162.953392
 21
90.597091
  0
LINE
  8
LAYER3
 62
3
  6
CONTINUOUS
 10
162.953392
 20
90.597091
 11
162.887783
 21
90.400262
  0
LINE
  8
LAYER3
 62
3
  6
CONTINUOUS
 10
162.887783
 20
90.400262
 11
162.822173
 21
90.203432
  0
LINE
  8
LAYER3
 62
3
  6
CONTINUOUS
 10
162.822173
 20
90.203432
 11
162.822173
 21
89.940992
  0
LINE
  8
LAYER3
 62
3
  6
CONTINUOUS
 10
162.822173
 20
89.940992
 11
162.822173
 21
89.809773
  0
LINE
  8
LAYER3
 62
3
  6
CONTINUOUS
 10
162.822173
 20
89.809773
 11
162.756563
 21
89.612943
  0
LINE
  8
LAYER3
 62
3
  6
CONTINUOUS
 10
162.756563
 20
89.612943
 11
162.756563
 21
89.416113
  0
LINE
  8
LAYER3
 62
3
  6
CONTINUOUS
 10
162.756563
 20
89.416113
 11
162.756563
 21
89.284893
  0
LINE
  8
LAYER3
 62
3
  6
CONTINUOUS
 10
162.756563
 20
89.284893
 11
162.756563
 21
89.153674
  0
LINE
  8
LAYER3
 62
3
  6
CONTINUOUS
 10
162.756563
 20
89.153674
 11
162.756563
 21
89.022454
  0
LINE
  8
LAYER3
 62
3
  6
CONTINUOUS
 10
162.756563
 20
89.022454
 11
162.756563
 21
88.891234
  0
LINE
  8
LAYER3
 62
3
  6
CONTINUOUS
 10
162.756563
 20
88.891234
 11
162.756563
 21
88.694404
  0
LINE
  8
LAYER3
 62
3
  6
CONTINUOUS
 10
162.756563
 20
88.694404
 11
162.756563
 21
88.563185
  0
LINE
  8
LAYER3
 62
3
  6
CONTINUOUS
 10
162.756563
 20
88.563185
 11
162.756563
 21
88.431965
  0
LINE
  8
LAYER3
 62
3
  6
CONTINUOUS
 10
162.756563
 20
88.431965
 11
162.756563
 21
88.300745
  0
LINE
  8
LAYER3
 62
3
  6
CONTINUOUS
 10
162.756563
 20
88.300745
 11
162.756563
 21
88.104497
  0
LINE
  8
LAYER4
 62
2
  6
DASHED
 10
166.945741
 20
97.120204
 11
170.695741
 21
97.120204
  0
LINE
  8
LAYER6
 62
1
  6
CONTINUOUS
 10
166.945741
 20
100.234050
 11
170.695741
 21
100.234050
  0
LINE
  8
LAYER4
 62
2
  6
DASHED
 10
166.945741
 20
97.120203
 11
170.695741
 21
97.120203
  0
LINE
  8
LAYER3
 62
3
  6
CONTINUOUS
 10
163.569753
 20
97.120203
 11
163.609491
 21
96.961251
  0
LINE
  8
LAYER6
 62
1
  6
CONTINUOUS
 10
163.569753
 20
97.120203
 11
166.945741
 21
97.120203
  0
LINE
  8
LAYER3
 62
3
  6
CONTINUOUS
 10
168.820741
 20
101.252143
 11
159.260819
 21
102.966515
  0
LINE
  8
LAYER3
 62
3
  6
CONTINUOUS
 10
168.820741
 20
68.531695
 11
159.260819
 21
71.915737
  0
ARC
  8
LAYER6
 62
1
  6
CONTINUOUS
 10
173.545741
 20
173.781244
 40
0.150000
 50
90.000000
 51
180.000000
  0
ARC
  8
LAYER6
 62
1
  6
CONTINUOUS
 10
173.545741
 20
158.781244
 40
0.150000
 50
90.000000
 51
180.000000
  0
ARC
  8
LAYER6
 62
1
  6
CONTINUOUS
 10
173.545741
 20
188.781244
 40
0.150000
 50
90.000000
 51
180.000000
  0
ARC
  8
LAYER6
 62
1
  6
CONTINUOUS
 10
175.945741
 20
191.520089
 40
0.375000
 50
0.000000
 51
90.000000
  0
ARC
  8
LAYER6
 62
1
  6
CONTINUOUS
 10
175.945741
 20
176.520089
 40
0.375000
 50
0.000000
 51
90.000000
  0
ARC
  8
LAYER6
 62
1
  6
CONTINUOUS
 10
175.945741
 20
161.520089
 40
0.375000
 50
0.000000
 51
90.000000
  0
ARC
  8
LAYER6
 62
1
  6
CONTINUOUS
 10
173.395741
 20
177.195089
 40
0.300000
 50
180.000000
 51
270.000000
  0
ARC
  8
LAYER6
 62
1
  6
CONTINUOUS
 10
173.395741
 20
162.195089
 40
0.300000
 50
180.000000
 51
270.000000
  0
ARC
  8
LAYER6
 62
1
  6
CONTINUOUS
 10
174.895741
 20
191.970089
 40
0.075000
 50
270.000000
 51
360.000000
  0
ARC
  8
LAYER6
 62
1
  6
CONTINUOUS
 10
173.395741
 20
192.195089
 40
0.300000
 50
128.407018
 51
270.000000
  0
ARC
  8
LAYER6
 62
1
  6
CONTINUOUS
 10
174.895741
 20
176.970089
 40
0.075000
 50
270.000000
 51
360.000000
  0
ARC
  8
LAYER6
 62
1
  6
CONTINUOUS
 10
174.895741
 20
161.970089
 40
0.075000
 50
270.000000
 51
360.000000
  0
ARC
  8
LAYER6
 62
1
  6
CONTINUOUS
 10
174.880741
 20
185.835796
 40
0.075000
 50
0.000000
 51
90.000000
  0
ARC
  8
LAYER6
 62
1
  6
CONTINUOUS
 10
174.880741
 20
200.835796
 40
0.075000
 50
0.000000
 51
90.000000
  0
ARC
  8
LAYER6
 62
1
  6
CONTINUOUS
 10
174.880741
 20
170.835796
 40
0.075000
 50
0.000000
 51
90.000000
  0
ARC
  8
LAYER6
 62
1
  6
CONTINUOUS
 10
167.920741
 20
59.552143
 40
0.375000
 50
90.000000
 51
180.000000
  0
ARC
  8
LAYER6
 62
1
  6
CONTINUOUS
 10
169.720741
 20
59.552143
 40
0.375000
 50
0.000000
 51
90.000000
  0
ARC
  8
LAYER6
 62
1
  6
CONTINUOUS
 10
168.820741
 20
35.552143
 40
22.500000
 50
93.248501
 51
94.780192
  0
ARC
  8
LAYER6
 62
1
  6
CONTINUOUS
 10
168.820741
 20
35.552143
 40
22.500000
 50
85.219808
 51
86.751499
  0
ARC
  8
LAYER6
 62
1
  6
CONTINUOUS
 10
169.345741
 20
56.777143
 40
0.750000
 50
0.000000
 51
90.000000
  0
ARC
  8
LAYER6
 62
1
  6
CONTINUOUS
 10
168.295741
 20
56.777143
 40
0.750000
 50
90.000000
 51
180.000000
  0
ARC
  8
LAYER6
 62
1
  6
CONTINUOUS
 10
168.820741
 20
50.552143
 40
22.500000
 50
93.248501
 51
94.780192
  0
ARC
  8
LAYER6
 62
1
  6
CONTINUOUS
 10
168.820741
 20
50.552143
 40
22.500000
 50
85.219808
 51
86.751499
  0
ARC
  8
LAYER6
 62
1
  6
CONTINUOUS
 10
168.820741
 20
65.552143
 40
22.500000
 50
93.248501
 51
94.780192
  0
ARC
  8
LAYER6
 62
1
  6
CONTINUOUS
 10
168.820741
 20
65.552143
 40
22.500000
 50
85.219808
 51
86.751499
  0
ARC
  8
LAYER6
 62
1
  6
CONTINUOUS
 10
167.920741
 20
74.552143
 40
0.375000
 50
90.000000
 51
180.000000
  0
ARC
  8
LAYER6
 62
1
  6
CONTINUOUS
 10
169.720741
 20
74.552143
 40
0.375000
 50
0.000000
 51
90.000000
  0
ARC
  8
LAYER6
 62
1
  6
CONTINUOUS
 10
167.920741
 20
89.552143
 40
0.375000
 50
90.000000
 51
180.000000
  0
ARC
  8
LAYER6
 62
1
  6
CONTINUOUS
 10
169.720741
 20
89.552143
 40
0.375000
 50
0.000000
 51
90.000000
  0
ARC
  8
LAYER6
 62
1
  6
CONTINUOUS
 10
168.295741
 20
71.777143
 40
0.750000
 50
90.000000
 51
180.000000
  0
ARC
  8
LAYER6
 62
1
  6
CONTINUOUS
 10
169.345741
 20
71.777143
 40
0.750000
 50
0.000000
 51
90.000000
  0
ARC
  8
LAYER6
 62
1
  6
CONTINUOUS
 10
168.295741
 20
86.777143
 40
0.750000
 50
90.000000
 51
180.000000
  0
ARC
  8
LAYER6
 62
1
  6
CONTINUOUS
 10
169.345741
 20
86.777143
 40
0.750000
 50
0.000000
 51
90.000000
  0
ARC
  8
LAYER6
 62
1
  6
CONTINUOUS
 10
167.320741
 20
71.231695
 40
0.375000
 50
90.000000
 51
180.000000
  0
ARC
  8
LAYER6
 62
1
  6
CONTINUOUS
 10
170.320741
 20
71.231695
 40
0.375000
 50
0.000000
 51
90.000000
  0
ARC
  8
LAYER6
 62
1
  6
CONTINUOUS
 10
167.320741
 20
65.531695
 40
0.375000
 50
180.000000
 51
270.000000
  0
ARC
  8
LAYER6
 62
1
  6
CONTINUOUS
 10
170.320741
 20
65.531695
 40
0.375000
 50
270.000000
 51
0.000000
  0
CIRCLE
  8
LAYER6
 62
1
  6
CONTINUOUS
 10
168.820741
 20
68.531695
 40
0.900000
  0
ARC
  8
LAYER6
 62
1
  6
CONTINUOUS
 10
167.320741
 20
86.257873
 40
0.375000
 50
90.000000
 51
180.000000
  0
ARC
  8
LAYER6
 62
1
  6
CONTINUOUS
 10
170.320741
 20
86.257873
 40
0.375000
 50
0.000000
 51
90.000000
  0
ARC
  8
LAYER6
 62
1
  6
CONTINUOUS
 10
167.320741
 20
80.557873
 40
0.375000
 50
180.000000
 51
270.000000
  0
ARC
  8
LAYER6
 62
1
  6
CONTINUOUS
 10
170.320741
 20
80.557873
 40
0.375000
 50
270.000000
 51
0.000000
  0
CIRCLE
  8
LAYER6
 62
1
  6
CONTINUOUS
 10
168.820741
 20
83.557873
 40
0.900000
  0
ARC
  8
LAYER6
 62
1
  6
CONTINUOUS
 10
167.320741
 20
101.284050
 40
0.375000
 50
90.000000
 51
180.000000
  0
ARC
  8
LAYER6
 62
1
  6
CONTINUOUS
 10
170.320741
 20
101.284050
 40
0.375000
 50
0.000000
 51
90.000000
  0
ARC
  8
LAYER6
 62
1
  6
CONTINUOUS
 10
167.320741
 20
95.584050
 40
0.375000
 50
180.000000
 51
270.000000
  0
ARC
  8
LAYER6
 62
1
  6
CONTINUOUS
 10
170.320741
 20
95.584050
 40
0.375000
 50
270.000000
 51
0.000000
  0
CIRCLE
  8
LAYER6
 62
1
  6
CONTINUOUS
 10
168.820741
 20
98.584050
 40
0.900000
  0
ARC
  8
LAYER6
 62
1
  6
CONTINUOUS
 10
168.820741
 20
101.252143
 40
1.275000
 50
18.611107
 51
161.388893
  0
ARC
  8
LAYER4
 62
2
  6
DASHED
 10
168.820741
 20
101.252143
 40
1.275000
 50
161.388893
 51
169.833268
  0
ARC
  8
LAYER4
 62
2
  6
DASHED
 10
168.820741
 20
101.252143
 40
1.275000
 50
169.833268
 51
180.000000
  0
ARC
  8
LAYER4
 62
2
  6
DASHED
 10
168.820741
 20
101.252143
 40
1.275000
 50
180.000000
 51
232.987484
  0
ARC
  8
LAYER4
 62
2
  6
DASHED
 10
168.820741
 20
101.252143
 40
1.275000
 50
232.987484
 51
270.000000
  0
ARC
  8
LAYER4
 62
2
  6
DASHED
 10
168.820741
 20
101.252143
 40
1.275000
 50
270.000000
 51
307.012516
  0
ARC
  8
LAYER4
 62
2
  6
DASHED
 10
168.820741
 20
101.252143
 40
1.275000
 50
307.012516
 51
0.000000
  0
ARC
  8
LAYER4
 62
2
  6
DASHED
 10
168.820741
 20
101.252143
 40
1.275000
 50
0.000000
 51
17.700121
  0
ARC
  8
LAYER6
 62
1
  6
CONTINUOUS
 10
168.820741
 20
101.252143
 40
0.675000
 50
37.072544
 51
142.927456
  0
ARC
  8
LAYER4
 62
2
  6
DASHED
 10
168.820741
 20
101.252143
 40
0.675000
 50
0.000000
 51
37.072544
  0
ARC
  8
LAYER4
 62
2
  6
DASHED
 10
168.820741
 20
101.252143
 40
0.675000
 50
270.000000
 51
0.000000
  0
ARC
  8
LAYER4
 62
2
  6
DASHED
 10
168.820741
 20
101.252143
 40
0.675000
 50
180.000000
 51
270.000000
  0
ARC
  8
LAYER4
 62
2
  6
DASHED
 10
168.820741
 20
101.252143
 40
0.675000
 50
169.833268
 51
180.000000
  0
ARC
  8
LAYER4
 62
2
  6
DASHED
 10
168.820741
 20
101.252143
 40
0.675000
 50
149.963286
 51
169.833268
  0
TEXT
  8
LAYER11
 62
7
 10
141.545874
 20
97.893526
 40
1.875000
 41
0.700000
  1
20Nm
 50
0.000000
 51
0.000000
 72
     0
 11
141.545874
 21
97.893526
  0
TEXT
  8
LAYER11
 62
7
 10
146.795874
 20
99.143526
 40
1.250000
 41
0.700000
  1
+0
 50
0.000000
 51
0.000000
 72
     0
 11
146.795874
 21
99.143526
  0
TEXT
  8
LAYER11
 62
7
 10
146.795874
 20
97.268526
 40
1.250000
 41
0.700000
  1
-2
 50
0.000000
 51
0.000000
 72
     0
 11
146.795874
 21
97.268526
  0
TEXT
  8
LAYER11
 62
7
 10
148.545874
 20
97.893526
 40
1.875000
 41
0.700000
  1
Nm
 50
0.000000
 51
0.000000
 72
     0
 11
148.545874
 21
97.893526
  0
TEXT
  8
LAYER11
 62
7
 10
141.545874
 20
68.782874
 40
1.875000
 41
0.700000
  1
10Nm
 50
0.000000
 51
0.000000
 72
     0
 11
141.545874
 21
68.782874
  0
TEXT
  8
LAYER11
 62
7
 10
146.795874
 20
70.032874
 40
1.250000
 41
0.700000
  1
+0
 50
0.000000
 51
0.000000
 72
     0
 11
146.795874
 21
70.032874
  0
TEXT
  8
LAYER11
 62
7
 10
146.795874
 20
68.157875
 40
1.250000
 41
0.700000
  1
-1.5
 50
0.000000
 51
0.000000
 72
     0
 11
146.795874
 21
68.157875
  0
TEXT
  8
LAYER11
 62
7
 10
150.295874
 20
68.782874
 40
1.875000
 41
0.700000
  1
Nm
 50
0.000000
 51
0.000000
 72
     0
 11
150.295874
 21
68.782874
  0
TEXT
  8
LAYER11
 62
7
 10
119.123411
 20
74.527407
 40
1.875000
 41
0.700000
  1
3 Sammelschienenklemmen
 50
0.000000
 51
0.000000
 72
     0
 11
119.123411
 21
74.527407
  0
TEXT
  8
LAYER11
 62
7
 10
119.123411
 20
71.714907
 40
1.875000
 41
0.700000
  1
(Innensechskant-Schraube M6
 50
0.000000
 51
0.000000
 72
     0
 11
119.123411
 21
71.714907
  0
TEXT
  8
LAYER11
 62
7
 10
119.123411
 20
68.902407
 40
1.875000
 41
0.700000
  1
Anzugsdrehmoment:         )
 50
0.000000
 51
0.000000
 72
     0
 11
119.123411
 21
68.902407
  0
TEXT
  8
LAYER11
 62
7
 10
119.123411
 20
103.638059
 40
1.875000
 41
0.700000
  1
2 Traegerbefestigungsloecher
 50
0.000000
 51
0.000000
 72
     0
 11
119.123411
 21
103.638059
  0
TEXT
  8
LAYER11
 62
7
 10
119.123411
 20
100.825559
 40
1.875000
 41
0.700000
  1
(Innensechskant-Schraube M8
 50
0.000000
 51
0.000000
 72
     0
 11
119.123411
 21
100.825559
  0
TEXT
  8
LAYER11
 62
7
 10
119.123411
 20
98.013059
 40
1.875000
 41
0.700000
  1
Anzugsdrehmoment:        )
 50
0.000000
 51
0.000000
 72
     0
 11
119.123411
 21
98.013059
  0
TEXT
  8
LAYER11
 62
1
 10
58.848549
 20
252.433243
 40
5.000000
 41
0.500000
  1
SST 100/10
 50
0.000000
 51
0.000000
 72
     0
 11
58.848549
 21
252.433243
  0
TEXT
  8
LAYER11
 62
1
 10
142.571231
 20
252.433243
 40
5.000000
 41
0.500000
  1
00084
 50
0.000000
 51
0.000000
 72
     0
 11
142.571231
 21
252.433243
  0
LINE
  8
LAYER8
 62
4
  6
CONTINUOUS
 10
166.945741
 20
103.052143
 11
166.945741
 21
108.855948
  0
LINE
  8
LAYER8
 62
4
  6
CONTINUOUS
 10
163.631463
 20
108.365644
 11
174.260104
 21
108.365644
  0
LINE
  8
LAYER8
 62
4
  6
CONTINUOUS
 10
170.695741
 20
103.048989
 11
170.695741
 21
108.849353
  0
LINE
  8
LAYER2
 62
4
  6
CONTINUOUS
 10
170.754918
 20
108.365644
 11
172.219668
 21
108.074644
  0
LINE
  8
LAYER3
 62
3
  6
CONTINUOUS
 10
170.757918
 20
108.365644
 11
172.219668
 21
108.074644
  0
LINE
  8
LAYER3
 62
3
  6
CONTINUOUS
 10
170.757918
 20
108.365644
 11
172.219668
 21
108.124144
  0
LINE
  8
LAYER3
 62
3
  6
CONTINUOUS
 10
170.794668
 20
108.372394
 11
172.219668
 21
108.182644
  0
LINE
  8
LAYER3
 62
3
  6
CONTINUOUS
 10
170.794668
 20
108.372394
 11
172.219668
 21
108.265894
  0
LINE
  8
LAYER3
 62
3
  6
CONTINUOUS
 10
170.757918
 20
108.365644
 11
172.219668
 21
108.317644
  0
LINE
  8
LAYER2
 62
4
  6
CONTINUOUS
 10
170.754918
 20
108.365644
 11
172.219668
 21
108.365644
  0
LINE
  8
LAYER2
 62
4
  6
CONTINUOUS
 10
172.219668
 20
108.656644
 11
172.219668
 21
108.074644
  0
LINE
  8
LAYER2
 62
4
  6
CONTINUOUS
 10
170.755668
 20
108.365644
 11
172.219668
 21
108.656644
  0
LINE
  8
LAYER3
 62
3
  6
CONTINUOUS
 10
170.757918
 20
108.365644
 11
172.219668
 21
108.656644
  0
LINE
  8
LAYER3
 62
3
  6
CONTINUOUS
 10
170.757918
 20
108.365644
 11
172.219668
 21
108.607144
  0
LINE
  8
LAYER3
 62
3
  6
CONTINUOUS
 10
170.794668
 20
108.358894
 11
172.219668
 21
108.548644
  0
LINE
  8
LAYER3
 62
3
  6
CONTINUOUS
 10
170.794668
 20
108.358894
 11
172.219668
 21
108.465394
  0
LINE
  8
LAYER3
 62
3
  6
CONTINUOUS
 10
170.757918
 20
108.365644
 11
172.219668
 21
108.413644
  0
LINE
  8
LAYER2
 62
4
  6
CONTINUOUS
 10
165.483241
 20
108.656644
 11
166.944991
 21
108.365644
  0
LINE
  8
LAYER2
 62
4
  6
CONTINUOUS
 10
165.480991
 20
108.074644
 11
166.945741
 21
108.365644
  0
LINE
  8
LAYER3
 62
3
  6
CONTINUOUS
 10
166.942741
 20
108.365644
 11
165.480991
 21
108.074644
  0
LINE
  8
LAYER3
 62
3
  6
CONTINUOUS
 10
166.942741
 20
108.365644
 11
165.480991
 21
108.124144
  0
LINE
  8
LAYER3
 62
3
  6
CONTINUOUS
 10
166.905991
 20
108.372394
 11
165.480991
 21
108.182644
  0
LINE
  8
LAYER3
 62
3
  6
CONTINUOUS
 10
166.905991
 20
108.372394
 11
165.480991
 21
108.265894
  0
LINE
  8
LAYER3
 62
3
  6
CONTINUOUS
 10
166.942741
 20
108.365644
 11
165.480991
 21
108.317644
  0
LINE
  8
LAYER2
 62
4
  6
CONTINUOUS
 10
165.480991
 20
108.365644
 11
166.945741
 21
108.365644
  0
LINE
  8
LAYER2
 62
4
  6
CONTINUOUS
 10
165.480991
 20
108.656644
 11
165.480991
 21
108.074644
  0
LINE
  8
LAYER2
 62
4
  6
CONTINUOUS
 10
165.480991
 20
108.656644
 11
166.943491
 21
108.365644
  0
LINE
  8
LAYER3
 62
3
  6
CONTINUOUS
 10
166.942741
 20
108.365644
 11
165.480991
 21
108.656644
  0
LINE
  8
LAYER3
 62
3
  6
CONTINUOUS
 10
166.942741
 20
108.365644
 11
165.480991
 21
108.607144
  0
LINE
  8
LAYER3
 62
3
  6
CONTINUOUS
 10
166.905991
 20
108.358894
 11
165.480991
 21
108.548644
  0
LINE
  8
LAYER3
 62
3
  6
CONTINUOUS
 10
166.905991
 20
108.358894
 11
165.480991
 21
108.465394
  0
LINE
  8
LAYER3
 62
3
  6
CONTINUOUS
 10
166.942741
 20
108.365644
 11
165.480991
 21
108.413644
  0
TEXT
  8
LAYER8
 62
4
 10
167.918691
 20
108.796672
 40
1.125000
 41
1.000000
  1
25
 50
0.000000
 51
0.261799
 72
     0
 11
167.918691
 21
108.796672
  0
LINE
  8
LAYER6
 62
1
  6
CONTINUOUS
 10
169.720741
 20
59.927143
 11
167.920741
 21
59.927143
  0
LINE
  8
LAYER6
 62
1
  6
CONTINUOUS
 10
170.095741
 20
56.777143
 11
170.095741
 21
54.452143
  0
LINE
  8
LAYER6
 62
1
  6
CONTINUOUS
 10
167.545741
 20
56.777143
 11
167.545741
 21
54.452143
  0
LINE
  8
LAYER6
 62
1
  6
CONTINUOUS
 10
169.345741
 20
57.527143
 11
168.295741
 21
57.527143
  0
CIRCLE
  8
LAYER6
 62
1
  6
CONTINUOUS
 10
168.820741
 20
56.252143
 40
0.675000
  0
CIRCLE
  8
LAYER6
 62
1
  6
CONTINUOUS
 10
168.820741
 20
56.252143
 40
1.275000
  0
TEXT
  8
LAYER11
 62
1
 10
167.715732
 20
58.577092
 40
0.750000
 41
0.500000
  1
L3
 50
720.000020
 51
0.000000
 72
     0
 11
167.715732
 21
58.577092
  0
TEXT
  8
LAYER11
 62
1
 10
169.744132
 20
59.300613
 40
0.750000
 41
0.500000
  1
L1
 50
899.999984
 51
0.000000
 72
     0
 11
169.744132
 21
59.300613
  0
LINE
  8
LAYER6
 62
1
  6
CONTINUOUS
 10
167.545741
 20
59.552143
 11
167.545741
 21
58.015989
  0
LINE
  8
LAYER6
 62
1
  6
CONTINUOUS
 10
170.095741
 20
59.552143
 11
170.095741
 21
58.015989
  0
LINE
  8
LAYER6
 62
1
  6
CONTINUOUS
 10
167.545741
 20
71.777143
 11
167.545741
 21
71.606695
  0
LINE
  8
LAYER6
 62
1
  6
CONTINUOUS
 10
170.095741
 20
71.777143
 11
170.095741
 21
71.606695
  0
LINE
  8
LAYER6
 62
1
  6
CONTINUOUS
 10
169.720741
 20
74.927143
 11
167.920741
 21
74.927143
  0
LINE
  8
LAYER6
 62
1
  6
CONTINUOUS
 10
170.095741
 20
74.552143
 11
170.095741
 21
73.015989
  0
LINE
  8
LAYER6
 62
1
  6
CONTINUOUS
 10
167.545741
 20
74.552143
 11
167.545741
 21
73.015989
  0
LINE
  8
LAYER6
 62
1
  6
CONTINUOUS
 10
167.545741
 20
86.777143
 11
167.545741
 21
86.632873
  0
LINE
  8
LAYER6
 62
1
  6
CONTINUOUS
 10
170.095741
 20
86.777143
 11
170.095741
 21
86.632873
  0
LINE
  8
LAYER6
 62
1
  6
CONTINUOUS
 10
169.720741
 20
89.927143
 11
167.920741
 21
89.927143
  0
LINE
  8
LAYER6
 62
1
  6
CONTINUOUS
 10
167.545741
 20
89.552143
 11
167.545741
 21
88.015989
  0
LINE
  8
LAYER6
 62
1
  6
CONTINUOUS
 10
170.095741
 20
89.552143
 11
170.095741
 21
88.015989
  0
LINE
  8
LAYER6
 62
1
  6
CONTINUOUS
 10
167.545741
 20
103.052143
 11
167.545741
 21
101.659050
  0
LINE
  8
LAYER6
 62
1
  6
CONTINUOUS
 10
167.395741
 20
103.052143
 11
167.395741
 21
101.659050
  0
LINE
  8
LAYER6
 62
1
  6
CONTINUOUS
 10
170.095741
 20
103.052143
 11
170.095741
 21
101.659050
  0
LINE
  8
LAYER6
 62
1
  6
CONTINUOUS
 10
170.245741
 20
103.052143
 11
170.245741
 21
101.659050
  0
TEXT
  8
LAYER11
 62
1
 10
169.744132
 20
74.300613
 40
0.750000
 41
0.500000
  1
L2
 50
899.999984
 51
0.000000
 72
     0
 11
169.744132
 21
74.300613
  0
TEXT
  8
LAYER11
 62
1
 10
167.715732
 20
73.577092
 40
0.750000
 41
0.500000
  1
L2
 50
720.000020
 51
0.000000
 72
     0
 11
167.715732
 21
73.577092
  0
TEXT
  8
LAYER11
 62
1
 10
167.715732
 20
88.577092
 40
0.750000
 41
0.500000
  1
L1
 50
720.000020
 51
0.000000
 72
     0
 11
167.715732
 21
88.577092
  0
TEXT
  8
LAYER11
 62
1
 10
169.744132
 20
89.300613
 40
0.750000
 41
0.500000
  1
L3
 50
899.999984
 51
0.000000
 72
     0
 11
169.744132
 21
89.300613
  0
LINE
  8
LAYER5
 62
7
  6
CENTER
 10
167.682285
 20
160.131244
 11
173.406706
 21
160.131244
  0
LINE
  8
LAYER6
 62
1
  6
CONTINUOUS
 10
169.045741
 20
158.331244
 11
173.395741
 21
158.331244
  0
LINE
  8
LAYER6
 62
1
  6
CONTINUOUS
 10
168.820741
 20
158.556244
 11
169.045741
 21
158.331244
  0
LINE
  8
LAYER6
 62
1
  6
CONTINUOUS
 10
168.820741
 20
158.556244
 11
168.820741
 21
206.706244
  0
LINE
  8
LAYER6
 62
1
  6
CONTINUOUS
 10
173.395741
 20
173.781244
 11
173.395741
 21
162.752982
  0
LINE
  8
LAYER6
 62
1
  6
CONTINUOUS
 10
176.320741
 20
178.431244
 11
176.320741
 21
175.956244
  0
LINE
  8
LAYER6
 62
1
  6
CONTINUOUS
 10
176.320741
 20
163.431244
 11
176.320741
 21
160.956244
  0
LINE
  8
LAYER6
 62
1
  6
CONTINUOUS
 10
175.945741
 20
178.806244
 11
175.045741
 21
178.806244
  0
LINE
  8
LAYER6
 62
1
  6
CONTINUOUS
 10
174.895741
 20
178.394122
 11
174.895741
 21
177.231244
  0
LINE
  8
LAYER6
 62
1
  6
CONTINUOUS
 10
174.895741
 20
163.394122
 11
174.895741
 21
162.231244
  0
LINE
  8
LAYER6
 62
1
  6
CONTINUOUS
 10
175.945741
 20
163.806244
 11
175.045741
 21
163.806244
  0
ARC
  8
LAYER6
 62
1
  6
CONTINUOUS
 10
175.945741
 20
163.431244
 40
0.375000
 50
0.000000
 51
90.000000
  0
ARC
  8
LAYER6
 62
1
  6
CONTINUOUS
 10
175.945741
 20
178.431244
 40
0.375000
 50
0.000000
 51
90.000000
  0
LINE
  8
LAYER6
 62
1
  6
CONTINUOUS
 10
176.320741
 20
193.431244
 11
176.320741
 21
191.781244
  0
LINE
  8
LAYER6
 62
1
  6
CONTINUOUS
 10
175.945741
 20
193.806244
 11
175.045741
 21
193.806244
  0
ARC
  8
LAYER6
 62
1
  6
CONTINUOUS
 10
175.945741
 20
193.431244
 40
0.375000
 50
0.000000
 51
90.000000
  0
LINE
  8
LAYER6
 62
1
  6
CONTINUOUS
 10
174.895741
 20
193.394122
 11
174.895741
 21
192.231244
  0
LINE
  8
LAYER6
 62
1
  6
CONTINUOUS
 10
175.945741
 20
193.806244
 11
175.120741
 21
193.806244
  0
LINE
  8
LAYER6
 62
1
  6
CONTINUOUS
 10
176.320741
 20
193.431244
 11
176.320741
 21
190.956244
  0
ARC
  8
LAYER6
 62
1
  6
CONTINUOUS
 10
175.945741
 20
193.431244
 40
0.375000
 50
0.000000
 51
90.000000
  0
LINE
  8
LAYER6
 62
1
  6
CONTINUOUS
 10
173.395741
 20
188.781244
 11
173.395741
 21
177.752982
  0
LINE
  8
LAYER6
 62
1
  6
CONTINUOUS
 10
173.395741
 20
206.931244
 11
173.395741
 21
192.752982
  0
LINE
  8
LAYER6
 62
1
  6
CONTINUOUS
 10
169.045741
 20
206.931244
 11
173.395741
 21
206.931244
  0
LINE
  8
LAYER5
 62
7
  6
CENTER
 10
168.283621
 20
205.131244
 11
172.984916
 21
205.131244
  0
LINE
  8
LAYER6
 62
1
  6
CONTINUOUS
 10
168.820741
 20
206.706244
 11
169.045741
 21
206.931244
  0
LINE
  8
LAYER3
 62
7
  6
CONTINUOUS
 10
210.000000
 20
0.000000
 11
210.000000
 21
297.000000
  0
LINE
  8
LAYER3
 62
7
  6
CONTINUOUS
 10
210.000000
 20
297.000000
 11
0.000000
 21
297.000000
  0
LINE
  8
LAYER3
 62
7
  6
CONTINUOUS
 10
0.000000
 20
297.000000
 11
0.000000
 21
0.000000
  0
LINE
  8
LAYER3
 62
7
  6
CONTINUOUS
 10
0.000000
 20
0.000000
 11
210.000000
 21
0.000000
  0
LINE
  8
LAYER6
 62
1
  6
CONTINUOUS
 10
176.305741
 20
184.374642
 11
176.305741
 21
189.024642
  0
LINE
  8
LAYER6
 62
1
  6
CONTINUOUS
 10
175.930741
 20
183.999642
 11
175.105741
 21
183.999642
  0
LINE
  8
LAYER6
 62
1
  6
CONTINUOUS
 10
174.880741
 20
184.224642
 11
174.880741
 21
185.535796
  0
LINE
  8
LAYER6
 62
1
  6
CONTINUOUS
 10
173.395741
 20
188.781244
 11
173.395741
 21
185.910796
  0
ARC
  8
LAYER6
 62
1
  6
CONTINUOUS
 10
175.930741
 20
184.374642
 40
0.375000
 50
270.000000
 51
0.000000
  0
LINE
  8
LAYER8
 62
4
  6
CONTINUOUS
 10
175.945741
 20
176.895089
 11
185.008702
 21
176.895089
  0
LINE
  8
LAYER8
 62
4
  6
CONTINUOUS
 10
170.121213
 20
180.347734
 11
178.356111
 21
180.347734
  0
LINE
  8
LAYER2
 62
4
  6
CONTINUOUS
 10
174.892741
 20
180.343561
 11
176.357491
 21
180.052561
  0
LINE
  8
LAYER3
 62
3
  6
CONTINUOUS
 10
174.895741
 20
180.343561
 11
176.357491
 21
180.052561
  0
LINE
  8
LAYER3
 62
3
  6
CONTINUOUS
 10
174.895741
 20
180.343561
 11
176.357491
 21
180.102061
  0
LINE
  8
LAYER3
 62
3
  6
CONTINUOUS
 10
174.932491
 20
180.350311
 11
176.357491
 21
180.160561
  0
LINE
  8
LAYER3
 62
3
  6
CONTINUOUS
 10
174.932491
 20
180.350311
 11
176.357491
 21
180.243811
  0
LINE
  8
LAYER3
 62
3
  6
CONTINUOUS
 10
174.895741
 20
180.343561
 11
176.357491
 21
180.295561
  0
LINE
  8
LAYER2
 62
4
  6
CONTINUOUS
 10
174.892741
 20
180.343561
 11
176.357491
 21
180.343561
  0
LINE
  8
LAYER2
 62
4
  6
CONTINUOUS
 10
174.893491
 20
180.343561
 11
176.357491
 21
180.634561
  0
LINE
  8
LAYER3
 62
3
  6
CONTINUOUS
 10
174.895741
 20
180.343561
 11
176.357491
 21
180.634561
  0
LINE
  8
LAYER3
 62
3
  6
CONTINUOUS
 10
174.895741
 20
180.343561
 11
176.357491
 21
180.585061
  0
LINE
  8
LAYER3
 62
3
  6
CONTINUOUS
 10
174.932491
 20
180.336811
 11
176.357491
 21
180.526561
  0
LINE
  8
LAYER3
 62
3
  6
CONTINUOUS
 10
174.932491
 20
180.336811
 11
176.357491
 21
180.443311
  0
LINE
  8
LAYER3
 62
3
  6
CONTINUOUS
 10
174.895741
 20
180.343561
 11
176.357491
 21
180.391561
  0
LINE
  8
LAYER2
 62
4
  6
CONTINUOUS
 10
176.357491
 20
180.634561
 11
176.357491
 21
180.052561
  0
LINE
  8
LAYER2
 62
4
  6
CONTINUOUS
 10
171.972991
 20
180.638734
 11
173.434741
 21
180.347734
  0
LINE
  8
LAYER2
 62
4
  6
CONTINUOUS
 10
171.970741
 20
180.056734
 11
173.435491
 21
180.347734
  0
LINE
  8
LAYER3
 62
3
  6
CONTINUOUS
 10
173.432491
 20
180.347734
 11
171.970741
 21
180.056734
  0
LINE
  8
LAYER3
 62
3
  6
CONTINUOUS
 10
173.432491
 20
180.347734
 11
171.970741
 21
180.106234
  0
LINE
  8
LAYER3
 62
3
  6
CONTINUOUS
 10
173.395741
 20
180.354484
 11
171.970741
 21
180.164734
  0
LINE
  8
LAYER3
 62
3
  6
CONTINUOUS
 10
173.395741
 20
180.354484
 11
171.970741
 21
180.247984
  0
LINE
  8
LAYER3
 62
3
  6
CONTINUOUS
 10
173.432491
 20
180.347734
 11
171.970741
 21
180.299734
  0
LINE
  8
LAYER2
 62
4
  6
CONTINUOUS
 10
171.970741
 20
180.347734
 11
173.435491
 21
180.347734
  0
LINE
  8
LAYER2
 62
4
  6
CONTINUOUS
 10
171.970741
 20
180.638734
 11
171.970741
 21
180.056734
  0
LINE
  8
LAYER2
 62
4
  6
CONTINUOUS
 10
171.970741
 20
180.638734
 11
173.433241
 21
180.347734
  0
LINE
  8
LAYER3
 62
3
  6
CONTINUOUS
 10
173.432491
 20
180.347734
 11
171.970741
 21
180.638734
  0
LINE
  8
LAYER3
 62
3
  6
CONTINUOUS
 10
173.432491
 20
180.347734
 11
171.970741
 21
180.589234
  0
LINE
  8
LAYER3
 62
3
  6
CONTINUOUS
 10
173.395741
 20
180.340984
 11
171.970741
 21
180.530734
  0
LINE
  8
LAYER3
 62
3
  6
CONTINUOUS
 10
173.395741
 20
180.340984
 11
171.970741
 21
180.447484
  0
LINE
  8
LAYER3
 62
3
  6
CONTINUOUS
 10
173.432491
 20
180.347734
 11
171.970741
 21
180.395734
  0
TEXT
  8
LAYER8
 62
4
 10
169.656346
 20
180.778761
 40
1.125000
 41
1.000000
  1
10
 50
0.000000
 51
0.261799
 72
     0
 11
169.656346
 21
180.778761
  0
LINE
  8
LAYER6
 62
1
  6
CONTINUOUS
 10
176.305741
 20
199.374642
 11
176.305741
 21
204.024642
  0
LINE
  8
LAYER6
 62
1
  6
CONTINUOUS
 10
175.930741
 20
198.999642
 11
175.105741
 21
198.999642
  0
LINE
  8
LAYER6
 62
1
  6
CONTINUOUS
 10
174.880741
 20
199.224642
 11
174.880741
 21
200.535796
  0
LINE
  8
LAYER6
 62
1
  6
CONTINUOUS
 10
173.395741
 20
203.781244
 11
173.395741
 21
200.910796
  0
ARC
  8
LAYER6
 62
1
  6
CONTINUOUS
 10
175.930741
 20
199.374642
 40
0.375000
 50
270.000000
 51
0.000000
  0
LINE
  8
LAYER6
 62
1
  6
CONTINUOUS
 10
176.305741
 20
169.374642
 11
176.305741
 21
174.024642
  0
LINE
  8
LAYER6
 62
1
  6
CONTINUOUS
 10
175.930741
 20
168.999642
 11
175.105741
 21
168.999642
  0
LINE
  8
LAYER6
 62
1
  6
CONTINUOUS
 10
174.880741
 20
169.224642
 11
174.880741
 21
170.535796
  0
LINE
  8
LAYER6
 62
1
  6
CONTINUOUS
 10
173.395741
 20
173.781244
 11
173.395741
 21
170.910796
  0
ARC
  8
LAYER6
 62
1
  6
CONTINUOUS
 10
175.930741
 20
169.374642
 40
0.375000
 50
270.000000
 51
0.000000
  0
LINE
  8
LAYER6
 62
1
  6
CONTINUOUS
 10
174.880741
 20
205.449642
 11
173.395741
 21
205.449642
  0
LINE
  8
LAYER3
 62
3
  6
CONTINUOUS
 10
164.261370
 20
205.094494
 11
164.071620
 21
203.669494
  0
LINE
  8
LAYER3
 62
3
  6
CONTINUOUS
 10
164.261370
 20
205.094494
 11
164.154870
 21
203.669494
  0
LINE
  8
LAYER3
 62
3
  6
CONTINUOUS
 10
164.247870
 20
205.094494
 11
164.437620
 21
203.669494
  0
LINE
  8
LAYER3
 62
3
  6
CONTINUOUS
 10
164.247870
 20
205.094494
 11
164.354370
 21
203.669494
  0
LINE
  8
LAYER3
 62
3
  6
CONTINUOUS
 10
164.254620
 20
205.131244
 11
163.963620
 21
203.669494
  0
LINE
  8
LAYER3
 62
3
  6
CONTINUOUS
 10
164.254620
 20
205.131244
 11
164.013120
 21
203.669494
  0
LINE
  8
LAYER3
 62
3
  6
CONTINUOUS
 10
164.261370
 20
205.094494
 11
164.071620
 21
203.669494
  0
LINE
  8
LAYER3
 62
3
  6
CONTINUOUS
 10
164.261370
 20
205.094494
 11
164.154870
 21
203.669494
  0
LINE
  8
LAYER3
 62
3
  6
CONTINUOUS
 10
164.247870
 20
205.094494
 11
164.437620
 21
203.669494
  0
LINE
  8
LAYER3
 62
3
  6
CONTINUOUS
 10
164.247870
 20
205.094494
 11
164.354370
 21
203.669494
  0
LINE
  8
LAYER3
 62
3
  6
CONTINUOUS
 10
164.254620
 20
205.131244
 11
164.302620
 21
203.669494
  0
LINE
  8
LAYER3
 62
3
  6
CONTINUOUS
 10
164.254620
 20
205.131244
 11
164.545620
 21
203.669494
  0
LINE
  8
LAYER8
 62
4
  6
CONTINUOUS
 10
163.753217
 20
160.131244
 11
168.283621
 21
160.131244
  0
LINE
  8
LAYER3
 62
4
  6
CONTINUOUS
 10
164.254620
 20
205.131244
 11
164.254620
 21
160.131244
  0
LINE
  8
LAYER3
 62
3
  6
CONTINUOUS
 10
164.268120
 20
160.094494
 11
163.977120
 21
161.556244
  0
LINE
  8
LAYER3
 62
3
  6
CONTINUOUS
 10
164.268120
 20
160.094494
 11
164.026620
 21
161.556244
  0
LINE
  8
LAYER3
 62
3
  6
CONTINUOUS
 10
164.274870
 20
160.131244
 11
164.085120
 21
161.556244
  0
LINE
  8
LAYER3
 62
3
  6
CONTINUOUS
 10
164.274870
 20
160.131244
 11
164.168370
 21
161.556244
  0
LINE
  8
LAYER3
 62
3
  6
CONTINUOUS
 10
164.268120
 20
160.094494
 11
164.220120
 21
161.556244
  0
LINE
  8
LAYER3
 62
3
  6
CONTINUOUS
 10
164.268120
 20
160.094494
 11
164.559120
 21
161.556244
  0
LINE
  8
LAYER3
 62
3
  6
CONTINUOUS
 10
164.268120
 20
160.094494
 11
164.509620
 21
161.556244
  0
LINE
  8
LAYER3
 62
3
  6
CONTINUOUS
 10
164.261370
 20
160.131244
 11
164.451120
 21
161.556244
  0
LINE
  8
LAYER3
 62
3
  6
CONTINUOUS
 10
164.261370
 20
160.131244
 11
164.367870
 21
161.556244
  0
LINE
  8
LAYER3
 62
3
  6
CONTINUOUS
 10
164.268120
 20
160.094494
 11
164.316120
 21
161.556244
  0
TEXT
  8
LAYER8
 62
4
 10
163.823592
 20
182.295982
 40
1.125000
 41
1.000000
  1
300
 50
90.000003
 51
0.261799
 72
     0
 11
163.823592
 21
182.295982
  0
LINE
  8
LAYER8
 62
4
  6
CONTINUOUS
 10
159.975024
 20
158.331244
 11
169.045741
 21
158.331244
  0
LINE
  8
LAYER3
 62
4
  6
CONTINUOUS
 10
160.219603
 20
207.059060
 11
160.219603
 21
158.328416
  0
LINE
  8
LAYER3
 62
3
  6
CONTINUOUS
 10
160.226353
 20
207.021560
 11
160.036603
 21
205.596560
  0
LINE
  8
LAYER3
 62
3
  6
CONTINUOUS
 10
160.226353
 20
207.021560
 11
160.119853
 21
205.596560
  0
LINE
  8
LAYER3
 62
3
  6
CONTINUOUS
 10
160.212853
 20
207.021560
 11
160.402603
 21
205.596560
  0
LINE
  8
LAYER3
 62
3
  6
CONTINUOUS
 10
160.212853
 20
207.021560
 11
160.319353
 21
205.596560
  0
LINE
  8
LAYER3
 62
3
  6
CONTINUOUS
 10
160.233103
 20
158.291666
 11
159.942103
 21
159.753416
  0
LINE
  8
LAYER3
 62
3
  6
CONTINUOUS
 10
160.233103
 20
158.291666
 11
159.991603
 21
159.753416
  0
LINE
  8
LAYER3
 62
3
  6
CONTINUOUS
 10
160.239853
 20
158.328416
 11
160.050103
 21
159.753416
  0
LINE
  8
LAYER3
 62
3
  6
CONTINUOUS
 10
160.239853
 20
158.328416
 11
160.133353
 21
159.753416
  0
LINE
  8
LAYER3
 62
3
  6
CONTINUOUS
 10
160.233103
 20
158.291666
 11
160.185103
 21
159.753416
  0
LINE
  8
LAYER3
 62
3
  6
CONTINUOUS
 10
160.233103
 20
158.291666
 11
160.524103
 21
159.753416
  0
LINE
  8
LAYER3
 62
3
  6
CONTINUOUS
 10
160.233103
 20
158.291666
 11
160.474603
 21
159.753416
  0
LINE
  8
LAYER3
 62
3
  6
CONTINUOUS
 10
160.226353
 20
158.328416
 11
160.416103
 21
159.753416
  0
LINE
  8
LAYER3
 62
3
  6
CONTINUOUS
 10
160.226353
 20
158.328416
 11
160.332853
 21
159.753416
  0
LINE
  8
LAYER3
 62
3
  6
CONTINUOUS
 10
160.233103
 20
158.291666
 11
160.281103
 21
159.753416
  0
LINE
  8
LAYER3
 62
3
  6
CONTINUOUS
 10
160.219603
 20
207.058310
 11
159.928603
 21
205.596560
  0
LINE
  8
LAYER3
 62
3
  6
CONTINUOUS
 10
160.219603
 20
207.058310
 11
159.978103
 21
205.596560
  0
LINE
  8
LAYER3
 62
3
  6
CONTINUOUS
 10
160.226353
 20
207.021560
 11
160.036603
 21
205.596560
  0
LINE
  8
LAYER3
 62
3
  6
CONTINUOUS
 10
160.226353
 20
207.021560
 11
160.119853
 21
205.596560
  0
LINE
  8
LAYER3
 62
3
  6
CONTINUOUS
 10
160.212853
 20
207.021560
 11
160.402603
 21
205.596560
  0
LINE
  8
LAYER3
 62
3
  6
CONTINUOUS
 10
160.212853
 20
207.021560
 11
160.319353
 21
205.596560
  0
LINE
  8
LAYER3
 62
3
  6
CONTINUOUS
 10
160.219603
 20
207.058310
 11
160.267603
 21
205.596560
  0
LINE
  8
LAYER3
 62
3
  6
CONTINUOUS
 10
160.219603
 20
207.058310
 11
160.510603
 21
205.596560
  0
TEXT
  8
LAYER8
 62
4
 10
159.788575
 20
181.215122
 40
1.125000
 41
1.000000
  1
324
 50
90.000003
 51
0.261799
 72
     0
 11
159.788575
 21
181.215122
  0
LINE
  8
LAYER8
 62
4
  6
CONTINUOUS
 10
163.792325
 20
205.131244
 11
168.133621
 21
205.131244
  0
LINE
  8
LAYER8
 62
4
  6
CONTINUOUS
 10
159.975024
 20
206.931244
 11
169.045741
 21
206.931244
  0
LINE
  8
LAYER8
 62
4
  6
CONTINUOUS
 10
165.506463
 20
212.244745
 11
176.960104
 21
212.244745
  0
LINE
  8
LAYER8
 62
4
  6
CONTINUOUS
 10
168.820741
 20
206.706244
 11
168.820741
 21
216.250094
  0
LINE
  8
LAYER8
 62
4
  6
CONTINUOUS
 10
173.395741
 20
206.928089
 11
173.395741
 21
212.728454
  0
LINE
  8
LAYER2
 62
4
  6
CONTINUOUS
 10
173.454918
 20
212.244745
 11
174.919668
 21
211.953745
  0
LINE
  8
LAYER3
 62
3
  6
CONTINUOUS
 10
173.457918
 20
212.244745
 11
174.919668
 21
211.953745
  0
LINE
  8
LAYER3
 62
3
  6
CONTINUOUS
 10
173.457918
 20
212.244745
 11
174.919668
 21
212.003245
  0
LINE
  8
LAYER3
 62
3
  6
CONTINUOUS
 10
173.494668
 20
212.251495
 11
174.919668
 21
212.061745
  0
LINE
  8
LAYER3
 62
3
  6
CONTINUOUS
 10
173.494668
 20
212.251495
 11
174.919668
 21
212.144995
  0
LINE
  8
LAYER3
 62
3
  6
CONTINUOUS
 10
173.457918
 20
212.244745
 11
174.919668
 21
212.196745
  0
LINE
  8
LAYER2
 62
4
  6
CONTINUOUS
 10
173.454918
 20
212.244745
 11
174.919668
 21
212.244745
  0
LINE
  8
LAYER2
 62
4
  6
CONTINUOUS
 10
174.919668
 20
212.535745
 11
174.919668
 21
211.953745
  0
LINE
  8
LAYER2
 62
4
  6
CONTINUOUS
 10
173.455668
 20
212.244745
 11
174.919668
 21
212.535745
  0
LINE
  8
LAYER3
 62
3
  6
CONTINUOUS
 10
173.457918
 20
212.244745
 11
174.919668
 21
212.535745
  0
LINE
  8
LAYER3
 62
3
  6
CONTINUOUS
 10
173.457918
 20
212.244745
 11
174.919668
 21
212.486245
  0
LINE
  8
LAYER3
 62
3
  6
CONTINUOUS
 10
173.494668
 20
212.237995
 11
174.919668
 21
212.427745
  0
LINE
  8
LAYER3
 62
3
  6
CONTINUOUS
 10
173.494668
 20
212.237995
 11
174.919668
 21
212.344495
  0
LINE
  8
LAYER3
 62
3
  6
CONTINUOUS
 10
173.457918
 20
212.244745
 11
174.919668
 21
212.292745
  0
LINE
  8
LAYER2
 62
4
  6
CONTINUOUS
 10
167.358241
 20
212.535745
 11
168.819991
 21
212.244745
  0
LINE
  8
LAYER2
 62
4
  6
CONTINUOUS
 10
167.355991
 20
211.953745
 11
168.820741
 21
212.244745
  0
LINE
  8
LAYER3
 62
3
  6
CONTINUOUS
 10
168.817741
 20
212.244745
 11
167.355991
 21
211.953745
  0
LINE
  8
LAYER3
 62
3
  6
CONTINUOUS
 10
168.817741
 20
212.244745
 11
167.355991
 21
212.003245
  0
LINE
  8
LAYER3
 62
3
  6
CONTINUOUS
 10
168.780991
 20
212.251495
 11
167.355991
 21
212.061745
  0
LINE
  8
LAYER3
 62
3
  6
CONTINUOUS
 10
168.780991
 20
212.251495
 11
167.355991
 21
212.144995
  0
LINE
  8
LAYER3
 62
3
  6
CONTINUOUS
 10
168.817741
 20
212.244745
 11
167.355991
 21
212.196745
  0
LINE
  8
LAYER2
 62
4
  6
CONTINUOUS
 10
167.355991
 20
212.244745
 11
168.820741
 21
212.244745
  0
LINE
  8
LAYER2
 62
4
  6
CONTINUOUS
 10
167.355991
 20
212.535745
 11
167.355991
 21
211.953745
  0
LINE
  8
LAYER2
 62
4
  6
CONTINUOUS
 10
167.355991
 20
212.535745
 11
168.818491
 21
212.244745
  0
LINE
  8
LAYER3
 62
3
  6
CONTINUOUS
 10
168.817741
 20
212.244745
 11
167.355991
 21
212.535745
  0
LINE
  8
LAYER3
 62
3
  6
CONTINUOUS
 10
168.817741
 20
212.244745
 11
167.355991
 21
212.486245
  0
LINE
  8
LAYER3
 62
3
  6
CONTINUOUS
 10
168.780991
 20
212.237995
 11
167.355991
 21
212.427745
  0
LINE
  8
LAYER3
 62
3
  6
CONTINUOUS
 10
168.780991
 20
212.237995
 11
167.355991
 21
212.344495
  0
LINE
  8
LAYER3
 62
3
  6
CONTINUOUS
 10
168.817741
 20
212.244745
 11
167.355991
 21
212.292745
  0
TEXT
  8
LAYER8
 62
4
 10
168.884211
 20
212.675772
 40
1.125000
 41
1.000000
  1
30.5
 50
0.000000
 51
0.261799
 72
     0
 11
168.884211
 21
212.675772
  0
LINE
  8
LAYER8
 62
4
  6
CONTINUOUS
 10
176.305741
 20
204.024642
 11
176.305741
 21
211.700702
  0
LINE
  8
LAYER8
 62
4
  6
CONTINUOUS
 10
176.305741
 20
212.628431
 11
176.305741
 21
216.250094
  0
LINE
  8
LAYER8
 62
4
  6
CONTINUOUS
 10
168.820741
 20
215.847494
 11
176.305741
 21
215.847494
  0
LINE
  8
LAYER2
 62
4
  6
CONTINUOUS
 10
176.305741
 20
215.847494
 11
174.840991
 21
216.138494
  0
LINE
  8
LAYER3
 62
3
  6
CONTINUOUS
 10
176.302741
 20
215.847494
 11
174.840991
 21
216.138494
  0
LINE
  8
LAYER3
 62
3
  6
CONTINUOUS
 10
176.302741
 20
215.847494
 11
174.840991
 21
216.088994
  0
LINE
  8
LAYER3
 62
3
  6
CONTINUOUS
 10
176.265991
 20
215.840744
 11
174.840991
 21
216.030494
  0
LINE
  8
LAYER3
 62
3
  6
CONTINUOUS
 10
176.265991
 20
215.840744
 11
174.840991
 21
215.947244
  0
LINE
  8
LAYER3
 62
3
  6
CONTINUOUS
 10
176.302741
 20
215.847494
 11
174.840991
 21
215.895494
  0
LINE
  8
LAYER2
 62
4
  6
CONTINUOUS
 10
176.305741
 20
215.847494
 11
174.840991
 21
215.847494
  0
LINE
  8
LAYER2
 62
4
  6
CONTINUOUS
 10
174.840991
 20
215.556494
 11
174.840991
 21
216.138494
  0
LINE
  8
LAYER2
 62
4
  6
CONTINUOUS
 10
176.304991
 20
215.847494
 11
174.840991
 21
215.556494
  0
LINE
  8
LAYER3
 62
3
  6
CONTINUOUS
 10
176.302741
 20
215.847494
 11
174.840991
 21
215.556494
  0
LINE
  8
LAYER3
 62
3
  6
CONTINUOUS
 10
176.302741
 20
215.847494
 11
174.840991
 21
215.605994
  0
LINE
  8
LAYER3
 62
3
  6
CONTINUOUS
 10
176.265991
 20
215.854244
 11
174.840991
 21
215.664494
  0
LINE
  8
LAYER3
 62
3
  6
CONTINUOUS
 10
176.265991
 20
215.854244
 11
174.840991
 21
215.747744
  0
LINE
  8
LAYER3
 62
3
  6
CONTINUOUS
 10
176.302741
 20
215.847494
 11
174.840991
 21
215.799494
  0
LINE
  8
LAYER2
 62
4
  6
CONTINUOUS
 10
170.283241
 20
215.556494
 11
168.821491
 21
215.847494
  0
LINE
  8
LAYER2
 62
4
  6
CONTINUOUS
 10
170.285491
 20
216.138494
 11
168.820741
 21
215.847494
  0
LINE
  8
LAYER3
 62
3
  6
CONTINUOUS
 10
168.823741
 20
215.847494
 11
170.285491
 21
216.138494
  0
LINE
  8
LAYER3
 62
3
  6
CONTINUOUS
 10
168.823741
 20
215.847494
 11
170.285491
 21
216.088994
  0
LINE
  8
LAYER3
 62
3
  6
CONTINUOUS
 10
168.860491
 20
215.840744
 11
170.285491
 21
216.030494
  0
LINE
  8
LAYER3
 62
3
  6
CONTINUOUS
 10
168.860491
 20
215.840744
 11
170.285491
 21
215.947244
  0
LINE
  8
LAYER3
 62
3
  6
CONTINUOUS
 10
168.823741
 20
215.847494
 11
170.285491
 21
215.895494
  0
LINE
  8
LAYER2
 62
4
  6
CONTINUOUS
 10
170.285491
 20
215.847494
 11
168.820741
 21
215.847494
  0
LINE
  8
LAYER2
 62
4
  6
CONTINUOUS
 10
170.285491
 20
215.556494
 11
170.285491
 21
216.138494
  0
LINE
  8
LAYER2
 62
4
  6
CONTINUOUS
 10
170.285491
 20
215.556494
 11
168.822991
 21
215.847494
  0
LINE
  8
LAYER3
 62
3
  6
CONTINUOUS
 10
168.823741
 20
215.847494
 11
170.285491
 21
215.556494
  0
LINE
  8
LAYER3
 62
3
  6
CONTINUOUS
 10
168.823741
 20
215.847494
 11
170.285491
 21
215.605994
  0
LINE
  8
LAYER3
 62
3
  6
CONTINUOUS
 10
168.860491
 20
215.854244
 11
170.285491
 21
215.664494
  0
LINE
  8
LAYER3
 62
3
  6
CONTINUOUS
 10
168.860491
 20
215.854244
 11
170.285491
 21
215.747744
  0
LINE
  8
LAYER3
 62
3
  6
CONTINUOUS
 10
168.823741
 20
215.847494
 11
170.285491
 21
215.799494
  0
TEXT
  8
LAYER8
 62
4
 10
171.436528
 20
216.304433
 40
1.125000
 41
1.000000
  1
50
 50
0.000000
 51
0.261799
 72
     0
 11
171.436528
 21
216.304433
  0
LINE
  8
LAYER8
 62
4
  6
CONTINUOUS
 10
175.945741
 20
191.895089
 11
185.241332
 21
191.895089
  0
LINE
  8
LAYER3
 62
3
  6
CONTINUOUS
 10
184.465174
 20
191.857589
 11
184.275424
 21
190.432589
  0
LINE
  8
LAYER3
 62
3
  6
CONTINUOUS
 10
184.465174
 20
191.857589
 11
184.358674
 21
190.432589
  0
LINE
  8
LAYER3
 62
3
  6
CONTINUOUS
 10
184.451674
 20
191.857589
 11
184.641424
 21
190.432589
  0
LINE
  8
LAYER3
 62
3
  6
CONTINUOUS
 10
184.451674
 20
191.857589
 11
184.558174
 21
190.432589
  0
LINE
  8
LAYER3
 62
3
  6
CONTINUOUS
 10
184.471924
 20
176.895089
 11
184.180924
 21
178.356839
  0
LINE
  8
LAYER3
 62
3
  6
CONTINUOUS
 10
184.471924
 20
176.895089
 11
184.230424
 21
178.356839
  0
LINE
  8
LAYER3
 62
3
  6
CONTINUOUS
 10
184.478674
 20
176.931839
 11
184.288924
 21
178.356839
  0
LINE
  8
LAYER3
 62
3
  6
CONTINUOUS
 10
184.478674
 20
176.931839
 11
184.372174
 21
178.356839
  0
LINE
  8
LAYER3
 62
3
  6
CONTINUOUS
 10
184.471924
 20
176.895089
 11
184.423924
 21
178.356839
  0
LINE
  8
LAYER3
 62
3
  6
CONTINUOUS
 10
184.471924
 20
176.895089
 11
184.762924
 21
178.356839
  0
LINE
  8
LAYER3
 62
3
  6
CONTINUOUS
 10
184.471924
 20
176.895089
 11
184.713424
 21
178.356839
  0
LINE
  8
LAYER3
 62
3
  6
CONTINUOUS
 10
184.465174
 20
176.931839
 11
184.654924
 21
178.356839
  0
LINE
  8
LAYER3
 62
3
  6
CONTINUOUS
 10
184.465174
 20
176.931839
 11
184.571674
 21
178.356839
  0
LINE
  8
LAYER3
 62
3
  6
CONTINUOUS
 10
184.471924
 20
176.895089
 11
184.519924
 21
178.356839
  0
LINE
  8
LAYER3
 62
3
  6
CONTINUOUS
 10
184.458424
 20
191.894339
 11
184.167424
 21
190.432589
  0
LINE
  8
LAYER3
 62
3
  6
CONTINUOUS
 10
184.458424
 20
191.894339
 11
184.216924
 21
190.432589
  0
LINE
  8
LAYER3
 62
3
  6
CONTINUOUS
 10
184.465174
 20
191.857589
 11
184.275424
 21
190.432589
  0
LINE
  8
LAYER3
 62
3
  6
CONTINUOUS
 10
184.465174
 20
191.857589
 11
184.358674
 21
190.432589
  0
LINE
  8
LAYER3
 62
3
  6
CONTINUOUS
 10
184.451674
 20
191.857589
 11
184.641424
 21
190.432589
  0
LINE
  8
LAYER3
 62
3
  6
CONTINUOUS
 10
184.451674
 20
191.857589
 11
184.558174
 21
190.432589
  0
LINE
  8
LAYER3
 62
3
  6
CONTINUOUS
 10
184.458424
 20
191.894339
 11
184.506424
 21
190.432589
  0
LINE
  8
LAYER3
 62
3
  6
CONTINUOUS
 10
184.458424
 20
191.894339
 11
184.749424
 21
190.432589
  0
TEXT
  8
LAYER8
 62
4
 10
184.027396
 20
182.810023
 40
1.125000
 41
1.000000
  1
100
 50
90.000003
 51
0.261799
 72
     0
 11
184.027396
 21
182.810023
  0
LINE
  8
LAYER8
 62
4
  6
CONTINUOUS
 10
173.406706
 20
161.895089
 11
185.008702
 21
161.895089
  0
LINE
  8
LAYER3
 62
4
  6
CONTINUOUS
 10
184.458424
 20
190.432764
 11
184.458424
 21
161.931244
  0
LINE
  8
LAYER3
 62
3
  6
CONTINUOUS
 10
184.465174
 20
176.928483
 11
184.275424
 21
175.503483
  0
LINE
  8
LAYER3
 62
3
  6
CONTINUOUS
 10
184.465174
 20
176.928483
 11
184.358674
 21
175.503483
  0
LINE
  8
LAYER3
 62
3
  6
CONTINUOUS
 10
184.451674
 20
176.928483
 11
184.641424
 21
175.503483
  0
LINE
  8
LAYER3
 62
3
  6
CONTINUOUS
 10
184.451674
 20
176.928483
 11
184.558174
 21
175.503483
  0
LINE
  8
LAYER3
 62
3
  6
CONTINUOUS
 10
184.471924
 20
161.894494
 11
184.180924
 21
163.356244
  0
LINE
  8
LAYER3
 62
3
  6
CONTINUOUS
 10
184.471924
 20
161.894494
 11
184.230424
 21
163.356244
  0
LINE
  8
LAYER3
 62
3
  6
CONTINUOUS
 10
184.478674
 20
161.931244
 11
184.288924
 21
163.356244
  0
LINE
  8
LAYER3
 62
3
  6
CONTINUOUS
 10
184.478674
 20
161.931244
 11
184.372174
 21
163.356244
  0
LINE
  8
LAYER3
 62
3
  6
CONTINUOUS
 10
184.471924
 20
161.894494
 11
184.423924
 21
163.356244
  0
LINE
  8
LAYER3
 62
3
  6
CONTINUOUS
 10
184.471924
 20
161.894494
 11
184.762924
 21
163.356244
  0
LINE
  8
LAYER3
 62
3
  6
CONTINUOUS
 10
184.471924
 20
161.894494
 11
184.713424
 21
163.356244
  0
LINE
  8
LAYER3
 62
3
  6
CONTINUOUS
 10
184.465174
 20
161.931244
 11
184.654924
 21
163.356244
  0
LINE
  8
LAYER3
 62
3
  6
CONTINUOUS
 10
184.465174
 20
161.931244
 11
184.571674
 21
163.356244
  0
LINE
  8
LAYER3
 62
3
  6
CONTINUOUS
 10
184.471924
 20
161.894494
 11
184.519924
 21
163.356244
  0
LINE
  8
LAYER3
 62
3
  6
CONTINUOUS
 10
184.458424
 20
176.965233
 11
184.167424
 21
175.503483
  0
LINE
  8
LAYER3
 62
3
  6
CONTINUOUS
 10
184.458424
 20
176.965233
 11
184.216924
 21
175.503483
  0
LINE
  8
LAYER3
 62
3
  6
CONTINUOUS
 10
184.465174
 20
176.928483
 11
184.275424
 21
175.503483
  0
LINE
  8
LAYER3
 62
3
  6
CONTINUOUS
 10
184.465174
 20
176.928483
 11
184.358674
 21
175.503483
  0
LINE
  8
LAYER3
 62
3
  6
CONTINUOUS
 10
184.451674
 20
176.928483
 11
184.641424
 21
175.503483
  0
LINE
  8
LAYER3
 62
3
  6
CONTINUOUS
 10
184.451674
 20
176.928483
 11
184.558174
 21
175.503483
  0
LINE
  8
LAYER3
 62
3
  6
CONTINUOUS
 10
184.458424
 20
176.965233
 11
184.506424
 21
175.503483
  0
LINE
  8
LAYER3
 62
3
  6
CONTINUOUS
 10
184.458424
 20
176.965233
 11
184.749424
 21
175.503483
  0
TEXT
  8
LAYER8
 62
4
 10
184.027396
 20
167.943065
 40
1.125000
 41
1.000000
  1
100
 50
90.000003
 51
0.261799
 72
     0
 11
184.027396
 21
167.943065
  0
LINE
  8
LAYER8
 62
4
  6
CONTINUOUS
 10
173.395741
 20
160.131244
 11
181.581004
 21
160.131244
  0
LINE
  8
LAYER3
 62
4
  6
CONTINUOUS
 10
180.953730
 20
165.597399
 11
180.953730
 21
155.834443
  0
LINE
  8
LAYER3
 62
3
  6
CONTINUOUS
 10
180.967230
 20
161.894494
 11
180.676230
 21
163.356244
  0
LINE
  8
LAYER3
 62
3
  6
CONTINUOUS
 10
180.967230
 20
161.894494
 11
180.725730
 21
163.356244
  0
LINE
  8
LAYER3
 62
3
  6
CONTINUOUS
 10
180.973980
 20
161.931244
 11
180.784230
 21
163.356244
  0
LINE
  8
LAYER3
 62
3
  6
CONTINUOUS
 10
180.973980
 20
161.931244
 11
180.867480
 21
163.356244
  0
LINE
  8
LAYER3
 62
3
  6
CONTINUOUS
 10
180.967230
 20
161.894494
 11
180.919230
 21
163.356244
  0
LINE
  8
LAYER3
 62
3
  6
CONTINUOUS
 10
180.967230
 20
161.894494
 11
181.258230
 21
163.356244
  0
LINE
  8
LAYER3
 62
3
  6
CONTINUOUS
 10
180.967230
 20
161.894494
 11
181.208730
 21
163.356244
  0
LINE
  8
LAYER3
 62
3
  6
CONTINUOUS
 10
180.960480
 20
161.931244
 11
181.150230
 21
163.356244
  0
LINE
  8
LAYER3
 62
3
  6
CONTINUOUS
 10
180.960480
 20
161.931244
 11
181.066980
 21
163.356244
  0
LINE
  8
LAYER3
 62
3
  6
CONTINUOUS
 10
180.967230
 20
161.894494
 11
181.015230
 21
163.356244
  0
TEXT
  8
LAYER8
 62
4
 10
180.522702
 20
155.857051
 40
1.125000
 41
1.000000
  1
12
 50
90.000003
 51
0.261799
 72
     0
 11
180.522702
 21
155.857051
  0
LINE
  8
LAYER3
 62
3
  6
CONTINUOUS
 10
180.953730
 20
160.131244
 11
181.244730
 21
158.669494
  0
LINE
  8
LAYER3
 62
3
  6
CONTINUOUS
 10
180.953730
 20
160.131244
 11
181.195230
 21
158.669494
  0
LINE
  8
LAYER3
 62
3
  6
CONTINUOUS
 10
180.946980
 20
160.094494
 11
181.136730
 21
158.669494
  0
LINE
  8
LAYER3
 62
3
  6
CONTINUOUS
 10
180.946980
 20
160.094494
 11
181.053480
 21
158.669494
  0
LINE
  8
LAYER3
 62
3
  6
CONTINUOUS
 10
180.953730
 20
160.131244
 11
181.001730
 21
158.669494
  0
LINE
  8
LAYER3
 62
3
  6
CONTINUOUS
 10
180.953730
 20
160.131244
 11
180.662730
 21
158.669494
  0
LINE
  8
LAYER3
 62
3
  6
CONTINUOUS
 10
180.953730
 20
160.131244
 11
180.712230
 21
158.669494
  0
LINE
  8
LAYER3
 62
3
  6
CONTINUOUS
 10
180.960480
 20
160.094494
 11
180.770730
 21
158.669494
  0
LINE
  8
LAYER3
 62
3
  6
CONTINUOUS
 10
180.960480
 20
160.094494
 11
180.853980
 21
158.669494
  0
LINE
  8
LAYER3
 62
3
  6
CONTINUOUS
 10
180.953730
 20
160.131244
 11
180.905730
 21
158.669494
  0
LINE
  8
LAYER5
 62
7
  6
CENTER
 10
167.466668
 20
68.531695
 11
170.299814
 21
68.531695
  0
LINE
  8
LAYER6
 62
1
  6
CONTINUOUS
 10
167.320741
 20
65.156695
 11
170.320741
 21
65.156695
  0
LINE
  8
LAYER6
 62
1
  6
CONTINUOUS
 10
166.945741
 20
65.531695
 11
166.945741
 21
71.231695
  0
LINE
  8
LAYER6
 62
1
  6
CONTINUOUS
 10
170.695741
 20
65.531695
 11
170.695741
 21
71.231695
  0
LINE
  8
LAYER6
 62
1
  6
CONTINUOUS
 10
167.320741
 20
71.606695
 11
170.320741
 21
71.606695
  0
LINE
  8
LAYER6
 62
1
  6
CONTINUOUS
 10
167.545878
 20
58.052142
 11
162.756563
 21
58.052142
  0
LINE
  8
LAYER5
 62
7
  6
CENTER
 10
167.466668
 20
83.557873
 11
170.299814
 21
83.557873
  0
LINE
  8
LAYER6
 62
1
  6
CONTINUOUS
 10
167.320741
 20
80.182873
 11
170.320741
 21
80.182873
  0
LINE
  8
LAYER6
 62
1
  6
CONTINUOUS
 10
166.945741
 20
80.557873
 11
166.945741
 21
86.257873
  0
LINE
  8
LAYER6
 62
1
  6
CONTINUOUS
 10
170.695741
 20
80.557873
 11
170.695741
 21
86.257873
  0
LINE
  8
LAYER6
 62
1
  6
CONTINUOUS
 10
167.320741
 20
86.632873
 11
170.320741
 21
86.632873
  0
LINE
  8
LAYER6
 62
1
  6
CONTINUOUS
 10
167.545878
 20
73.078319
 11
162.756563
 21
73.078319
  0
LINE
  8
LAYER5
 62
7
  6
CENTER
 10
167.466668
 20
98.584050
 11
170.299814
 21
98.584050
  0
LINE
  8
LAYER6
 62
1
  6
CONTINUOUS
 10
167.320741
 20
95.209050
 11
170.320741
 21
95.209050
  0
LINE
  8
LAYER6
 62
1
  6
CONTINUOUS
 10
166.945741
 20
95.584050
 11
166.945741
 21
101.284050
  0
LINE
  8
LAYER6
 62
1
  6
CONTINUOUS
 10
170.695741
 20
95.584050
 11
170.695741
 21
101.284050
  0
LINE
  8
LAYER6
 62
1
  6
CONTINUOUS
 10
167.320741
 20
101.659050
 11
170.320741
 21
101.659050
  0
LINE
  8
LAYER6
 62
1
  6
CONTINUOUS
 10
167.545878
 20
88.104497
 11
162.756563
 21
88.104497
  0
ENDSEC
  0
EOF
