  0
SECTION
  2
HEADER
  9
$FILLMODE
 70
     1
  9
$LTSCALE
 40
10.00
  9
$TEXTSIZE
 40
1.0
  9
$DIMSCALE
 40
1.0
  9
$TEXTSTYLE
  7
STANDARD
  9
$LUNITS
 70
     2
  9
$LUPREC
 70
     1
  9
$AUNITS
 70
     0
  9
$AUPREC
 70
     4
  9
$DWGCODEPAGE
  3
iso8859-1
  0
ENDSEC
  0
SECTION
  2
TABLES
  0
TABLE
  2
LTYPE
 70
     5
  0
LTYPE
  2
DOTTED
 70
    64
  3
. . . . . . . . . . . . . . . . . . . . . . . .
 72
    65
 73
     0
 40
0.4
  0
LTYPE
  2
CONTINUOUS
 70
    64
  3
_______________________________________________
 72
    65
 73
     0
 40
0.0
  0
LTYPE
  2
DASHED
 70
    64
  3
_ _ _ _ _ _ _ _ _ _ _ _ _ _ _ _ _ _ _ _ _ _ _ _
 72
    65
 73
     2
 40
3.5
 49
1.25
 49
-1.0
  0
LTYPE
  2
CENTER
 70
    64
  3
____ _ ____ _ ____ _ ____ _ ____ _ ____ _ ____ 
 72
    65
 73
     4
 40
3.5
 49
1.5
 49
-0.4
 49
0.4
 49
-0.4
  0
LTYPE
  2
CONTINUOUS
 70
    64
  3
_______________________________________________
 72
    65
 73
     0
 40
0.0
  0
ENDTAB
  0
TABLE
  2
LAYER
 70
     9
  0
LAYER
  2
LAYER1
 70
    64
 62
1
  6
CONTINUOUS
  0
LAYER
  2
LAYER2
 70
    64
 62
2
  6
DASHED
  0
LAYER
  2
LAYER3
 70
    64
 62
3
  6
CENTER
  0
LAYER
  2
LAYER4
 70
    64
 62
4
  6
CONTINUOUS
  0
LAYER
  2
LAYER5
 70
    64
 62
6
  6
DASHED
  0
LAYER
  2
LAYER6
 70
    64
 62
1
  6
CENTER
  0
LAYER
  2
LAYER8
 70
    64
 62
3
  6
DASHED
  0
LAYER
  2
LAYER10
 70
    64
 62
3
  6
CONTINUOUS
  0
LAYER
  2
LAYER11
 70
    64
 62
3
  6
CONTINUOUS
  0
ENDTAB
  0
TABLE
  2
STYLE
 70
     1
  0
STYLE
  2
STANDARD
 70
    64
 40
0.0
 41
1.0
 50
0.0
 71
     0
 42
1.0
  3
MONOTXT
  4

  0
ENDTAB
  0
TABLE
  2
VIEW
 70
     0
  0
ENDTAB
  0
ENDSEC
  0
SECTION
  2
BLOCKS
  0
ENDSEC
  0
SECTION
  2
ENTITIES
  0
LINE
  8
LAYER6
 62
1
  6
CONTINUOUS
 10
1409.799036
 20
882.798706
 11
1409.799036
 21
881.898706
  0
LINE
  8
LAYER6
 62
1
  6
CONTINUOUS
 10
1410.174036
 20
881.898706
 11
1409.799036
 21
881.898706
  0
LINE
  8
LAYER6
 62
1
  6
CONTINUOUS
 10
1410.174036
 20
882.798706
 11
1409.799036
 21
882.798706
  0
LINE
  8
LAYER6
 62
1
  6
CONTINUOUS
 10
1414.299036
 20
882.798706
 11
1414.299036
 21
881.898706
  0
LINE
  8
LAYER6
 62
1
  6
CONTINUOUS
 10
1413.924036
 20
881.898706
 11
1414.299036
 21
881.898706
  0
LINE
  8
LAYER6
 62
1
  6
CONTINUOUS
 10
1413.924036
 20
882.798706
 11
1414.299036
 21
882.798706
  0
LINE
  8
LAYER6
 62
1
  6
CONTINUOUS
 10
1413.924036
 20
926.898706
 11
1414.299036
 21
926.898706
  0
LINE
  8
LAYER6
 62
1
  6
CONTINUOUS
 10
1413.924036
 20
925.998706
 11
1414.299036
 21
925.998706
  0
LINE
  8
LAYER6
 62
1
  6
CONTINUOUS
 10
1414.299036
 20
926.898706
 11
1414.299036
 21
925.998706
  0
LINE
  8
LAYER6
 62
1
  6
CONTINUOUS
 10
1410.174036
 20
935.112552
 11
1413.924036
 21
935.112552
  0
LINE
  8
LAYER4
 62
2
  6
DASHED
 10
1410.174036
 20
904.248706
 11
1413.924036
 21
904.248706
  0
LINE
  8
LAYER6
 62
1
  6
CONTINUOUS
 10
1410.174036
 20
907.362552
 11
1413.924036
 21
907.362552
  0
LINE
  8
LAYER4
 62
2
  6
DASHED
 10
1410.174036
 20
876.498706
 11
1413.924036
 21
876.498706
  0
LINE
  8
LAYER6
 62
1
  6
CONTINUOUS
 10
1410.174036
 20
879.612552
 11
1413.924036
 21
879.612552
  0
LINE
  8
LAYER4
 62
2
  6
DASHED
 10
1410.174036
 20
931.998706
 11
1413.924036
 21
931.998706
  0
LINE
  8
LAYER3
 62
3
  6
CONTINUOUS
 10
1406.028098
 20
931.998706
 11
1405.831268
 21
931.873515
  0
LINE
  8
LAYER3
 62
3
  6
CONTINUOUS
 10
1405.831268
 20
931.873515
 11
1405.765658
 21
931.611076
  0
LINE
  8
LAYER3
 62
3
  6
CONTINUOUS
 10
1405.765658
 20
931.611076
 11
1405.700048
 21
931.414246
  0
LINE
  8
LAYER3
 62
3
  6
CONTINUOUS
 10
1405.700048
 20
931.414246
 11
1405.700048
 21
931.283026
  0
LINE
  8
LAYER3
 62
3
  6
CONTINUOUS
 10
1405.700048
 20
931.283026
 11
1405.568828
 21
931.086197
  0
LINE
  8
LAYER3
 62
3
  6
CONTINUOUS
 10
1405.568828
 20
931.086197
 11
1405.568828
 21
930.889367
  0
LINE
  8
LAYER3
 62
3
  6
CONTINUOUS
 10
1405.568828
 20
930.889367
 11
1405.503219
 21
930.626927
  0
LINE
  8
LAYER3
 62
3
  6
CONTINUOUS
 10
1405.503219
 20
930.626927
 11
1405.437609
 21
930.233268
  0
LINE
  8
LAYER3
 62
3
  6
CONTINUOUS
 10
1405.437609
 20
930.233268
 11
1405.437609
 21
930.036438
  0
LINE
  8
LAYER3
 62
3
  6
CONTINUOUS
 10
1405.437609
 20
930.036438
 11
1405.371999
 21
929.839609
  0
LINE
  8
LAYER3
 62
3
  6
CONTINUOUS
 10
1405.371999
 20
929.839609
 11
1405.371999
 21
929.642779
  0
LINE
  8
LAYER3
 62
3
  6
CONTINUOUS
 10
1405.371999
 20
929.642779
 11
1405.437609
 21
929.380339
  0
LINE
  8
LAYER3
 62
3
  6
CONTINUOUS
 10
1405.437609
 20
929.380339
 11
1405.437609
 21
929.117900
  0
LINE
  8
LAYER3
 62
3
  6
CONTINUOUS
 10
1405.437609
 20
929.117900
 11
1405.503219
 21
928.855460
  0
LINE
  8
LAYER3
 62
3
  6
CONTINUOUS
 10
1405.503219
 20
928.855460
 11
1405.503219
 21
928.724240
  0
LINE
  8
LAYER3
 62
3
  6
CONTINUOUS
 10
1405.503219
 20
928.724240
 11
1405.503219
 21
928.461801
  0
LINE
  8
LAYER3
 62
3
  6
CONTINUOUS
 10
1405.503219
 20
928.461801
 11
1405.503219
 21
928.330581
  0
LINE
  8
LAYER3
 62
3
  6
CONTINUOUS
 10
1405.503219
 20
928.330581
 11
1405.503219
 21
928.133751
  0
LINE
  8
LAYER3
 62
3
  6
CONTINUOUS
 10
1405.503219
 20
928.133751
 11
1405.568828
 21
927.936922
  0
LINE
  8
LAYER3
 62
3
  6
CONTINUOUS
 10
1405.568828
 20
927.936922
 11
1405.568828
 21
927.674482
  0
LINE
  8
LAYER3
 62
3
  6
CONTINUOUS
 10
1405.568828
 20
927.674482
 11
1405.700048
 21
927.346433
  0
LINE
  8
LAYER3
 62
3
  6
CONTINUOUS
 10
1405.700048
 20
927.346433
 11
1405.765658
 21
926.755943
  0
LINE
  8
LAYER3
 62
3
  6
CONTINUOUS
 10
1405.765658
 20
926.755943
 11
1405.765658
 21
926.493504
  0
LINE
  8
LAYER3
 62
3
  6
CONTINUOUS
 10
1405.765658
 20
926.493504
 11
1405.765658
 21
926.165454
  0
LINE
  8
LAYER3
 62
3
  6
CONTINUOUS
 10
1405.765658
 20
926.165454
 11
1405.700048
 21
925.837405
  0
LINE
  8
LAYER3
 62
3
  6
CONTINUOUS
 10
1405.700048
 20
925.837405
 11
1405.634438
 21
925.443746
  0
LINE
  8
LAYER3
 62
3
  6
CONTINUOUS
 10
1405.634438
 20
925.443746
 11
1405.568828
 21
925.246916
  0
LINE
  8
LAYER3
 62
3
  6
CONTINUOUS
 10
1405.568828
 20
925.246916
 11
1405.437609
 21
924.853257
  0
LINE
  8
LAYER3
 62
3
  6
CONTINUOUS
 10
1405.437609
 20
924.853257
 11
1405.437609
 21
924.525207
  0
LINE
  8
LAYER3
 62
3
  6
CONTINUOUS
 10
1405.437609
 20
924.525207
 11
1405.371999
 21
924.262768
  0
LINE
  8
LAYER3
 62
3
  6
CONTINUOUS
 10
1405.371999
 20
924.262768
 11
1405.306389
 21
924.065938
  0
LINE
  8
LAYER3
 62
3
  6
CONTINUOUS
 10
1405.306389
 20
924.065938
 11
1405.240779
 21
923.737888
  0
LINE
  8
LAYER3
 62
3
  6
CONTINUOUS
 10
1405.240779
 20
923.737888
 11
1405.109559
 21
923.475449
  0
LINE
  8
LAYER3
 62
3
  6
CONTINUOUS
 10
1405.109559
 20
923.475449
 11
1404.978339
 21
923.081789
  0
LINE
  8
LAYER3
 62
3
  6
CONTINUOUS
 10
1404.978339
 20
923.081789
 11
1404.912729
 21
922.884960
  0
LINE
  8
LAYER3
 62
3
  6
CONTINUOUS
 10
1404.912729
 20
922.884960
 11
1404.847120
 21
922.491300
  0
LINE
  8
LAYER3
 62
3
  6
CONTINUOUS
 10
1404.847120
 20
922.491300
 11
1404.781510
 21
922.294471
  0
LINE
  8
LAYER3
 62
3
  6
CONTINUOUS
 10
1404.781510
 20
922.294471
 11
1404.715900
 21
922.097641
  0
LINE
  8
LAYER3
 62
3
  6
CONTINUOUS
 10
1404.715900
 20
922.097641
 11
1404.715900
 21
921.835201
  0
LINE
  8
LAYER3
 62
3
  6
CONTINUOUS
 10
1404.715900
 20
921.835201
 11
1404.715900
 21
921.703982
  0
LINE
  8
LAYER3
 62
3
  6
CONTINUOUS
 10
1404.715900
 20
921.703982
 11
1404.650290
 21
921.507152
  0
LINE
  8
LAYER3
 62
3
  6
CONTINUOUS
 10
1404.650290
 20
921.507152
 11
1404.650290
 21
921.310322
  0
LINE
  8
LAYER3
 62
3
  6
CONTINUOUS
 10
1404.650290
 20
921.310322
 11
1404.650290
 21
921.179102
  0
LINE
  8
LAYER3
 62
3
  6
CONTINUOUS
 10
1404.650290
 20
921.179102
 11
1404.650290
 21
921.047883
  0
LINE
  8
LAYER3
 62
3
  6
CONTINUOUS
 10
1404.650290
 20
921.047883
 11
1404.650290
 21
920.916663
  0
LINE
  8
LAYER3
 62
3
  6
CONTINUOUS
 10
1404.650290
 20
920.916663
 11
1404.650290
 21
920.785443
  0
LINE
  8
LAYER3
 62
3
  6
CONTINUOUS
 10
1404.650290
 20
920.785443
 11
1404.650290
 21
920.588613
  0
LINE
  8
LAYER3
 62
3
  6
CONTINUOUS
 10
1404.650290
 20
920.588613
 11
1404.650290
 21
920.457394
  0
LINE
  8
LAYER3
 62
3
  6
CONTINUOUS
 10
1404.650290
 20
920.457394
 11
1404.650290
 21
920.326174
  0
LINE
  8
LAYER3
 62
3
  6
CONTINUOUS
 10
1404.650290
 20
920.326174
 11
1404.650290
 21
920.194954
  0
LINE
  8
LAYER6
 62
1
  6
CONTINUOUS
 10
1406.028098
 20
931.998706
 11
1410.174036
 21
931.998706
  0
LINE
  8
LAYER3
 62
3
  6
CONTINUOUS
 10
1404.650290
 20
920.194954
 11
1404.650290
 21
919.998706
  0
LINE
  8
LAYER4
 62
2
  6
DASHED
 10
1410.174036
 20
904.248706
 11
1413.924036
 21
904.248706
  0
LINE
  8
LAYER3
 62
3
  6
CONTINUOUS
 10
1406.028098
 20
904.248706
 11
1405.831268
 21
904.123515
  0
LINE
  8
LAYER3
 62
3
  6
CONTINUOUS
 10
1405.831268
 20
904.123515
 11
1405.765658
 21
903.861075
  0
LINE
  8
LAYER3
 62
3
  6
CONTINUOUS
 10
1405.765658
 20
903.861075
 11
1405.700048
 21
903.664246
  0
LINE
  8
LAYER3
 62
3
  6
CONTINUOUS
 10
1405.700048
 20
903.664246
 11
1405.700048
 21
903.533026
  0
LINE
  8
LAYER3
 62
3
  6
CONTINUOUS
 10
1405.700048
 20
903.533026
 11
1405.568828
 21
903.336196
  0
LINE
  8
LAYER3
 62
3
  6
CONTINUOUS
 10
1405.568828
 20
903.336196
 11
1405.568828
 21
903.139366
  0
LINE
  8
LAYER3
 62
3
  6
CONTINUOUS
 10
1405.568828
 20
903.139366
 11
1405.503219
 21
902.876927
  0
LINE
  8
LAYER3
 62
3
  6
CONTINUOUS
 10
1405.503219
 20
902.876927
 11
1405.437609
 21
902.483267
  0
LINE
  8
LAYER3
 62
3
  6
CONTINUOUS
 10
1405.437609
 20
902.483267
 11
1405.437609
 21
902.286438
  0
LINE
  8
LAYER3
 62
3
  6
CONTINUOUS
 10
1405.437609
 20
902.286438
 11
1405.371999
 21
902.089608
  0
LINE
  8
LAYER3
 62
3
  6
CONTINUOUS
 10
1405.371999
 20
902.089608
 11
1405.371999
 21
901.892778
  0
LINE
  8
LAYER3
 62
3
  6
CONTINUOUS
 10
1405.371999
 20
901.892778
 11
1405.437609
 21
901.630339
  0
LINE
  8
LAYER3
 62
3
  6
CONTINUOUS
 10
1405.437609
 20
901.630339
 11
1405.437609
 21
901.367899
  0
LINE
  8
LAYER3
 62
3
  6
CONTINUOUS
 10
1405.437609
 20
901.367899
 11
1405.503219
 21
901.105460
  0
LINE
  8
LAYER3
 62
3
  6
CONTINUOUS
 10
1405.503219
 20
901.105460
 11
1405.503219
 21
900.974240
  0
LINE
  8
LAYER3
 62
3
  6
CONTINUOUS
 10
1405.503219
 20
900.974240
 11
1405.503219
 21
900.711800
  0
LINE
  8
LAYER3
 62
3
  6
CONTINUOUS
 10
1405.503219
 20
900.711800
 11
1405.503219
 21
900.580581
  0
LINE
  8
LAYER3
 62
3
  6
CONTINUOUS
 10
1405.503219
 20
900.580581
 11
1405.503219
 21
900.383751
  0
LINE
  8
LAYER3
 62
3
  6
CONTINUOUS
 10
1405.503219
 20
900.383751
 11
1405.568828
 21
900.186921
  0
LINE
  8
LAYER3
 62
3
  6
CONTINUOUS
 10
1405.568828
 20
900.186921
 11
1405.568828
 21
899.924482
  0
LINE
  8
LAYER3
 62
3
  6
CONTINUOUS
 10
1405.568828
 20
899.924482
 11
1405.700048
 21
899.596432
  0
LINE
  8
LAYER3
 62
3
  6
CONTINUOUS
 10
1405.700048
 20
899.596432
 11
1405.765658
 21
899.005943
  0
LINE
  8
LAYER3
 62
3
  6
CONTINUOUS
 10
1405.765658
 20
899.005943
 11
1405.765658
 21
898.743503
  0
LINE
  8
LAYER3
 62
3
  6
CONTINUOUS
 10
1405.765658
 20
898.743503
 11
1405.765658
 21
898.415454
  0
LINE
  8
LAYER3
 62
3
  6
CONTINUOUS
 10
1405.765658
 20
898.415454
 11
1405.700048
 21
898.087405
  0
LINE
  8
LAYER3
 62
3
  6
CONTINUOUS
 10
1405.700048
 20
898.087405
 11
1405.634438
 21
897.693745
  0
LINE
  8
LAYER3
 62
3
  6
CONTINUOUS
 10
1405.634438
 20
897.693745
 11
1405.568828
 21
897.496916
  0
LINE
  8
LAYER3
 62
3
  6
CONTINUOUS
 10
1405.568828
 20
897.496916
 11
1405.437609
 21
897.103256
  0
LINE
  8
LAYER3
 62
3
  6
CONTINUOUS
 10
1405.437609
 20
897.103256
 11
1405.437609
 21
896.775207
  0
LINE
  8
LAYER3
 62
3
  6
CONTINUOUS
 10
1405.437609
 20
896.775207
 11
1405.371999
 21
896.512767
  0
LINE
  8
LAYER3
 62
3
  6
CONTINUOUS
 10
1405.371999
 20
896.512767
 11
1405.306389
 21
896.315937
  0
LINE
  8
LAYER3
 62
3
  6
CONTINUOUS
 10
1405.306389
 20
896.315937
 11
1405.240779
 21
895.987888
  0
LINE
  8
LAYER3
 62
3
  6
CONTINUOUS
 10
1405.240779
 20
895.987888
 11
1405.109559
 21
895.725448
  0
LINE
  8
LAYER3
 62
3
  6
CONTINUOUS
 10
1405.109559
 20
895.725448
 11
1404.978339
 21
895.331789
  0
LINE
  8
LAYER3
 62
3
  6
CONTINUOUS
 10
1404.978339
 20
895.331789
 11
1404.912729
 21
895.134959
  0
LINE
  8
LAYER3
 62
3
  6
CONTINUOUS
 10
1404.912729
 20
895.134959
 11
1404.847120
 21
894.741300
  0
LINE
  8
LAYER3
 62
3
  6
CONTINUOUS
 10
1404.847120
 20
894.741300
 11
1404.781510
 21
894.544470
  0
LINE
  8
LAYER3
 62
3
  6
CONTINUOUS
 10
1404.781510
 20
894.544470
 11
1404.715900
 21
894.347641
  0
LINE
  8
LAYER3
 62
3
  6
CONTINUOUS
 10
1404.715900
 20
894.347641
 11
1404.715900
 21
894.085201
  0
LINE
  8
LAYER3
 62
3
  6
CONTINUOUS
 10
1404.715900
 20
894.085201
 11
1404.715900
 21
893.953981
  0
LINE
  8
LAYER3
 62
3
  6
CONTINUOUS
 10
1404.715900
 20
893.953981
 11
1404.650290
 21
893.757152
  0
LINE
  8
LAYER3
 62
3
  6
CONTINUOUS
 10
1404.650290
 20
893.757152
 11
1404.650290
 21
893.560322
  0
LINE
  8
LAYER3
 62
3
  6
CONTINUOUS
 10
1404.650290
 20
893.560322
 11
1404.650290
 21
893.429102
  0
LINE
  8
LAYER3
 62
3
  6
CONTINUOUS
 10
1404.650290
 20
893.429102
 11
1404.650290
 21
893.297882
  0
LINE
  8
LAYER3
 62
3
  6
CONTINUOUS
 10
1404.650290
 20
893.297882
 11
1404.650290
 21
893.166662
  0
LINE
  8
LAYER3
 62
3
  6
CONTINUOUS
 10
1404.650290
 20
893.166662
 11
1404.650290
 21
893.035443
  0
LINE
  8
LAYER3
 62
3
  6
CONTINUOUS
 10
1404.650290
 20
893.035443
 11
1404.650290
 21
892.838613
  0
LINE
  8
LAYER3
 62
3
  6
CONTINUOUS
 10
1404.650290
 20
892.838613
 11
1404.650290
 21
892.707393
  0
LINE
  8
LAYER3
 62
3
  6
CONTINUOUS
 10
1404.650290
 20
892.707393
 11
1404.650290
 21
892.576173
  0
LINE
  8
LAYER3
 62
3
  6
CONTINUOUS
 10
1404.650290
 20
892.576173
 11
1404.650290
 21
892.444954
  0
LINE
  8
LAYER6
 62
1
  6
CONTINUOUS
 10
1406.028098
 20
904.248706
 11
1410.174036
 21
904.248706
  0
LINE
  8
LAYER3
 62
3
  6
CONTINUOUS
 10
1404.650290
 20
892.444954
 11
1404.650290
 21
892.248706
  0
LINE
  8
LAYER4
 62
2
  6
DASHED
 10
1410.174036
 20
876.498705
 11
1413.924036
 21
876.498705
  0
LINE
  8
LAYER6
 62
1
  6
CONTINUOUS
 10
1411.149036
 20
894.123706
 11
1412.949036
 21
894.123706
  0
LINE
  8
LAYER3
 62
3
  6
CONTINUOUS
 10
1413.324036
 20
936.873706
 11
1412.536536
 21
936.873706
  0
LINE
  8
LAYER3
 62
3
  6
CONTINUOUS
 10
1411.561536
 20
936.873706
 11
1410.774036
 21
936.873706
  0
LINE
  8
LAYER3
 62
3
  6
CONTINUOUS
 10
1413.324036
 20
937.623706
 11
1412.536536
 21
937.623706
  0
LINE
  8
LAYER3
 62
3
  6
CONTINUOUS
 10
1411.561536
 20
937.623706
 11
1410.774036
 21
937.623706
  0
LINE
  8
LAYER3
 62
3
  6
CONTINUOUS
 10
1413.279036
 20
939.873706
 11
1412.360534
 21
939.873706
  0
LINE
  8
LAYER3
 62
3
  6
CONTINUOUS
 10
1411.737538
 20
939.873706
 11
1410.819036
 21
939.873706
  0
LINE
  8
LAYER3
 62
3
  6
CONTINUOUS
 10
1411.561536
 20
938.373706
 11
1410.819036
 21
938.373706
  0
LINE
  8
LAYER3
 62
3
  6
CONTINUOUS
 10
1411.561536
 20
939.123706
 11
1410.819036
 21
939.123706
  0
LINE
  8
LAYER3
 62
3
  6
CONTINUOUS
 10
1413.279036
 20
938.373706
 11
1412.536536
 21
938.373706
  0
LINE
  8
LAYER3
 62
3
  6
CONTINUOUS
 10
1413.279036
 20
939.123706
 11
1412.536536
 21
939.123706
  0
LINE
  8
LAYER3
 62
3
  6
CONTINUOUS
 10
1413.279036
 20
940.623706
 11
1410.819036
 21
940.623706
  0
LINE
  8
LAYER3
 62
3
  6
CONTINUOUS
 10
1413.324036
 20
909.123706
 11
1412.536536
 21
909.123706
  0
LINE
  8
LAYER3
 62
3
  6
CONTINUOUS
 10
1411.561536
 20
909.123706
 11
1410.774036
 21
909.123706
  0
LINE
  8
LAYER3
 62
3
  6
CONTINUOUS
 10
1413.324036
 20
909.873706
 11
1412.536536
 21
909.873706
  0
LINE
  8
LAYER3
 62
3
  6
CONTINUOUS
 10
1411.561536
 20
909.873706
 11
1410.774036
 21
909.873706
  0
LINE
  8
LAYER3
 62
3
  6
CONTINUOUS
 10
1413.279036
 20
912.873706
 11
1410.819036
 21
912.873706
  0
LINE
  8
LAYER3
 62
3
  6
CONTINUOUS
 10
1413.279036
 20
912.123706
 11
1412.360534
 21
912.123706
  0
LINE
  8
LAYER3
 62
3
  6
CONTINUOUS
 10
1411.737538
 20
912.123706
 11
1410.819036
 21
912.123706
  0
LINE
  8
LAYER3
 62
3
  6
CONTINUOUS
 10
1411.561536
 20
910.623706
 11
1410.819036
 21
910.623706
  0
LINE
  8
LAYER3
 62
3
  6
CONTINUOUS
 10
1411.561536
 20
911.373706
 11
1410.819036
 21
911.373706
  0
LINE
  8
LAYER3
 62
3
  6
CONTINUOUS
 10
1413.279036
 20
910.623706
 11
1412.536536
 21
910.623706
  0
LINE
  8
LAYER3
 62
3
  6
CONTINUOUS
 10
1413.279036
 20
911.373706
 11
1412.536536
 21
911.373706
  0
LINE
  8
LAYER3
 62
3
  6
CONTINUOUS
 10
1413.324036
 20
881.373706
 11
1412.536536
 21
881.373706
  0
LINE
  8
LAYER3
 62
3
  6
CONTINUOUS
 10
1411.561536
 20
881.373706
 11
1410.774036
 21
881.373706
  0
LINE
  8
LAYER3
 62
3
  6
CONTINUOUS
 10
1413.324036
 20
882.123706
 11
1412.536536
 21
882.123706
  0
LINE
  8
LAYER3
 62
3
  6
CONTINUOUS
 10
1411.561536
 20
882.123706
 11
1410.774036
 21
882.123706
  0
LINE
  8
LAYER3
 62
3
  6
CONTINUOUS
 10
1413.279036
 20
885.123706
 11
1410.819036
 21
885.123706
  0
LINE
  8
LAYER3
 62
3
  6
CONTINUOUS
 10
1413.279036
 20
884.373706
 11
1412.360534
 21
884.373706
  0
LINE
  8
LAYER3
 62
3
  6
CONTINUOUS
 10
1411.737538
 20
884.373706
 11
1410.819036
 21
884.373706
  0
LINE
  8
LAYER3
 62
3
  6
CONTINUOUS
 10
1411.561536
 20
882.873706
 11
1410.819036
 21
882.873706
  0
LINE
  8
LAYER3
 62
3
  6
CONTINUOUS
 10
1411.561536
 20
883.623706
 11
1410.819036
 21
883.623706
  0
LINE
  8
LAYER3
 62
3
  6
CONTINUOUS
 10
1413.279036
 20
882.873706
 11
1412.536536
 21
882.873706
  0
LINE
  8
LAYER3
 62
3
  6
CONTINUOUS
 10
1413.279036
 20
883.623706
 11
1412.536536
 21
883.623706
  0
LINE
  8
LAYER3
 62
3
  6
CONTINUOUS
 10
1407.362665
 20
876.498705
 11
1407.165835
 21
876.373514
  0
LINE
  8
LAYER3
 62
3
  6
CONTINUOUS
 10
1407.165835
 20
876.373514
 11
1407.100226
 21
876.111075
  0
LINE
  8
LAYER3
 62
3
  6
CONTINUOUS
 10
1407.100226
 20
876.111075
 11
1407.034616
 21
875.914245
  0
LINE
  8
LAYER3
 62
3
  6
CONTINUOUS
 10
1407.034616
 20
875.914245
 11
1407.034616
 21
875.783025
  0
LINE
  8
LAYER3
 62
3
  6
CONTINUOUS
 10
1407.034616
 20
875.783025
 11
1406.903396
 21
875.586196
  0
LINE
  8
LAYER3
 62
3
  6
CONTINUOUS
 10
1406.903396
 20
875.586196
 11
1406.903396
 21
875.389366
  0
LINE
  8
LAYER3
 62
3
  6
CONTINUOUS
 10
1406.903396
 20
875.389366
 11
1406.837786
 21
875.126926
  0
LINE
  8
LAYER3
 62
3
  6
CONTINUOUS
 10
1406.837786
 20
875.126926
 11
1406.772176
 21
874.733267
  0
LINE
  8
LAYER3
 62
3
  6
CONTINUOUS
 10
1406.772176
 20
874.733267
 11
1406.772176
 21
874.536437
  0
LINE
  8
LAYER3
 62
3
  6
CONTINUOUS
 10
1406.772176
 20
874.536437
 11
1406.706566
 21
874.339608
  0
LINE
  8
LAYER3
 62
3
  6
CONTINUOUS
 10
1406.706566
 20
874.339608
 11
1406.706566
 21
874.142778
  0
LINE
  8
LAYER3
 62
3
  6
CONTINUOUS
 10
1406.706566
 20
874.142778
 11
1406.772176
 21
873.880338
  0
LINE
  8
LAYER3
 62
3
  6
CONTINUOUS
 10
1406.772176
 20
873.880338
 11
1406.772176
 21
873.617899
  0
LINE
  8
LAYER3
 62
3
  6
CONTINUOUS
 10
1406.772176
 20
873.617899
 11
1406.837786
 21
873.355459
  0
LINE
  8
LAYER3
 62
3
  6
CONTINUOUS
 10
1406.837786
 20
873.355459
 11
1406.837786
 21
873.224239
  0
LINE
  8
LAYER3
 62
3
  6
CONTINUOUS
 10
1406.837786
 20
873.224239
 11
1406.837786
 21
872.961800
  0
LINE
  8
LAYER3
 62
3
  6
CONTINUOUS
 10
1406.837786
 20
872.961800
 11
1406.837786
 21
872.830580
  0
LINE
  8
LAYER3
 62
3
  6
CONTINUOUS
 10
1406.837786
 20
872.830580
 11
1406.837786
 21
872.633750
  0
LINE
  8
LAYER3
 62
3
  6
CONTINUOUS
 10
1406.837786
 20
872.633750
 11
1406.903396
 21
872.436921
  0
LINE
  8
LAYER3
 62
3
  6
CONTINUOUS
 10
1406.903396
 20
872.436921
 11
1406.903396
 21
872.174481
  0
LINE
  8
LAYER3
 62
3
  6
CONTINUOUS
 10
1406.903396
 20
872.174481
 11
1407.034616
 21
871.846432
  0
LINE
  8
LAYER3
 62
3
  6
CONTINUOUS
 10
1407.034616
 20
871.846432
 11
1407.100226
 21
871.255943
  0
LINE
  8
LAYER3
 62
3
  6
CONTINUOUS
 10
1407.100226
 20
871.255943
 11
1407.100226
 21
870.993503
  0
LINE
  8
LAYER3
 62
3
  6
CONTINUOUS
 10
1407.100226
 20
870.993503
 11
1407.100226
 21
870.665454
  0
LINE
  8
LAYER3
 62
3
  6
CONTINUOUS
 10
1407.100226
 20
870.665454
 11
1407.034616
 21
870.337404
  0
LINE
  8
LAYER3
 62
3
  6
CONTINUOUS
 10
1407.034616
 20
870.337404
 11
1406.969006
 21
869.943745
  0
LINE
  8
LAYER3
 62
3
  6
CONTINUOUS
 10
1406.969006
 20
869.943745
 11
1406.903396
 21
869.746915
  0
LINE
  8
LAYER3
 62
3
  6
CONTINUOUS
 10
1406.903396
 20
869.746915
 11
1406.772176
 21
869.353256
  0
LINE
  8
LAYER3
 62
3
  6
CONTINUOUS
 10
1406.772176
 20
869.353256
 11
1406.772176
 21
869.025206
  0
LINE
  8
LAYER3
 62
3
  6
CONTINUOUS
 10
1406.772176
 20
869.025206
 11
1406.706566
 21
868.762767
  0
LINE
  8
LAYER3
 62
3
  6
CONTINUOUS
 10
1406.706566
 20
868.762767
 11
1406.640956
 21
868.565937
  0
LINE
  8
LAYER3
 62
3
  6
CONTINUOUS
 10
1406.640956
 20
868.565937
 11
1406.575346
 21
868.237888
  0
LINE
  8
LAYER3
 62
3
  6
CONTINUOUS
 10
1406.575346
 20
868.237888
 11
1406.444127
 21
867.975448
  0
LINE
  8
LAYER3
 62
3
  6
CONTINUOUS
 10
1406.444127
 20
867.975448
 11
1406.312907
 21
867.581789
  0
LINE
  8
LAYER3
 62
3
  6
CONTINUOUS
 10
1406.312907
 20
867.581789
 11
1406.247297
 21
867.384959
  0
LINE
  8
LAYER3
 62
3
  6
CONTINUOUS
 10
1406.247297
 20
867.384959
 11
1406.181687
 21
866.991300
  0
LINE
  8
LAYER3
 62
3
  6
CONTINUOUS
 10
1406.181687
 20
866.991300
 11
1406.116077
 21
866.794470
  0
LINE
  8
LAYER3
 62
3
  6
CONTINUOUS
 10
1406.116077
 20
866.794470
 11
1406.050467
 21
866.597640
  0
LINE
  8
LAYER3
 62
3
  6
CONTINUOUS
 10
1406.050467
 20
866.597640
 11
1406.050467
 21
866.335201
  0
LINE
  8
LAYER3
 62
3
  6
CONTINUOUS
 10
1406.050467
 20
866.335201
 11
1406.050467
 21
866.203981
  0
LINE
  8
LAYER3
 62
3
  6
CONTINUOUS
 10
1406.050467
 20
866.203981
 11
1405.984857
 21
866.007151
  0
LINE
  8
LAYER3
 62
3
  6
CONTINUOUS
 10
1405.984857
 20
866.007151
 11
1405.984857
 21
865.810321
  0
LINE
  8
LAYER3
 62
3
  6
CONTINUOUS
 10
1405.984857
 20
865.810321
 11
1405.984857
 21
865.679102
  0
LINE
  8
LAYER3
 62
3
  6
CONTINUOUS
 10
1405.984857
 20
865.679102
 11
1405.984857
 21
865.547882
  0
LINE
  8
LAYER3
 62
3
  6
CONTINUOUS
 10
1405.984857
 20
865.547882
 11
1405.984857
 21
865.416662
  0
LINE
  8
LAYER3
 62
3
  6
CONTINUOUS
 10
1405.984857
 20
865.416662
 11
1405.984857
 21
865.285442
  0
LINE
  8
LAYER3
 62
3
  6
CONTINUOUS
 10
1405.984857
 20
865.285442
 11
1405.984857
 21
865.088613
  0
LINE
  8
LAYER3
 62
3
  6
CONTINUOUS
 10
1405.984857
 20
865.088613
 11
1405.984857
 21
864.957393
  0
LINE
  8
LAYER3
 62
3
  6
CONTINUOUS
 10
1405.984857
 20
864.957393
 11
1405.984857
 21
864.826173
  0
LINE
  8
LAYER3
 62
3
  6
CONTINUOUS
 10
1405.984857
 20
864.826173
 11
1405.984857
 21
864.694953
  0
LINE
  8
LAYER6
 62
1
  6
CONTINUOUS
 10
1407.362665
 20
876.498705
 11
1410.174036
 21
876.498705
  0
LINE
  8
LAYER3
 62
3
  6
CONTINUOUS
 10
1405.984857
 20
864.694953
 11
1405.984857
 21
864.498705
  0
LINE
  8
LAYER3
 62
3
  6
CONTINUOUS
 10
1412.049036
 20
945.198706
 11
1402.489113
 21
946.913078
  0
LINE
  8
LAYER3
 62
3
  6
CONTINUOUS
 10
1412.049036
 20
877.962552
 11
1402.489113
 21
881.346594
  0
LINE
  8
LAYER6
 62
1
  6
CONTINUOUS
 10
1416.364228
 20
1037.694692
 11
1416.624036
 21
1038.144692
  0
LINE
  8
LAYER6
 62
1
  6
CONTINUOUS
 10
1416.364228
 20
1009.944692
 11
1416.624036
 21
1010.394692
  0
LINE
  8
LAYER6
 62
1
  6
CONTINUOUS
 10
1416.364228
 20
982.194692
 11
1416.624036
 21
982.644692
  0
LINE
  8
LAYER6
 62
1
  6
CONTINUOUS
 10
1418.199036
 20
1037.469692
 11
1418.199036
 21
1037.319692
  0
LINE
  8
LAYER6
 62
1
  6
CONTINUOUS
 10
1418.124036
 20
1037.544692
 11
1418.199036
 21
1037.469692
  0
LINE
  8
LAYER6
 62
1
  6
CONTINUOUS
 10
1418.199036
 20
1009.719692
 11
1418.199036
 21
1009.569692
  0
LINE
  8
LAYER6
 62
1
  6
CONTINUOUS
 10
1418.124036
 20
1009.794692
 11
1418.199036
 21
1009.719692
  0
LINE
  8
LAYER6
 62
1
  6
CONTINUOUS
 10
1418.199036
 20
981.969692
 11
1418.199036
 21
981.819692
  0
LINE
  8
LAYER6
 62
1
  6
CONTINUOUS
 10
1418.124036
 20
982.044692
 11
1418.199036
 21
981.969692
  0
LINE
  8
LAYER6
 62
1
  6
CONTINUOUS
 10
1412.274036
 20
1064.244692
 11
1412.049036
 21
1064.019692
  0
LINE
  8
LAYER6
 62
1
  6
CONTINUOUS
 10
1418.109036
 20
1053.783538
 11
1419.534036
 21
1052.358538
  0
LINE
  8
LAYER6
 62
1
  6
CONTINUOUS
 10
1418.334036
 20
1047.333538
 11
1418.109036
 21
1047.558538
  0
LINE
  8
LAYER6
 62
1
  6
CONTINUOUS
 10
1418.184036
 20
1048.944692
 11
1418.184036
 21
1049.169692
  0
LINE
  8
LAYER6
 62
1
  6
CONTINUOUS
 10
1418.109036
 20
1049.244692
 11
1416.624036
 21
1049.244692
  0
LINE
  8
LAYER6
 62
1
  6
CONTINUOUS
 10
1418.184036
 20
1048.944692
 11
1418.109036
 21
1048.869692
  0
LINE
  8
LAYER6
 62
1
  6
CONTINUOUS
 10
1418.109036
 20
1026.033538
 11
1419.534036
 21
1024.608538
  0
LINE
  8
LAYER6
 62
1
  6
CONTINUOUS
 10
1418.334036
 20
1019.583538
 11
1418.109036
 21
1019.808538
  0
LINE
  8
LAYER6
 62
1
  6
CONTINUOUS
 10
1418.184036
 20
1021.194692
 11
1418.184036
 21
1021.419692
  0
LINE
  8
LAYER6
 62
1
  6
CONTINUOUS
 10
1418.109036
 20
1021.494692
 11
1416.624036
 21
1021.494692
  0
LINE
  8
LAYER6
 62
1
  6
CONTINUOUS
 10
1418.184036
 20
1021.194692
 11
1418.109036
 21
1021.119692
  0
LINE
  8
LAYER6
 62
1
  6
CONTINUOUS
 10
1418.109036
 20
998.283538
 11
1419.534036
 21
996.858538
  0
LINE
  8
LAYER6
 62
1
  6
CONTINUOUS
 10
1418.334036
 20
991.833538
 11
1418.109036
 21
992.058538
  0
LINE
  8
LAYER6
 62
1
  6
CONTINUOUS
 10
1418.184036
 20
993.444692
 11
1418.184036
 21
993.669692
  0
LINE
  8
LAYER6
 62
1
  6
CONTINUOUS
 10
1418.109036
 20
993.744692
 11
1416.624036
 21
993.744692
  0
LINE
  8
LAYER6
 62
1
  6
CONTINUOUS
 10
1418.184036
 20
993.444692
 11
1418.109036
 21
993.369692
  0
LINE
  8
LAYER6
 62
1
  6
CONTINUOUS
 10
1416.624036
 20
1037.244692
 11
1418.124036
 21
1037.244692
  0
LINE
  8
LAYER6
 62
1
  6
CONTINUOUS
 10
1418.124036
 20
1037.244692
 11
1418.124036
 21
1049.244693
  0
LINE
  8
LAYER6
 62
1
  6
CONTINUOUS
 10
1418.124036
 20
1049.244693
 11
1416.624036
 21
1049.244693
  0
LINE
  8
LAYER6
 62
1
  6
CONTINUOUS
 10
1416.624036
 20
1049.244693
 11
1416.624036
 21
1037.244692
  0
LINE
  8
LAYER10
 62
6
 10
1417.911904
 20
1037.244692
 11
1418.124036
 21
1037.456824
  0
LINE
  8
LAYER10
 62
6
 10
1417.699772
 20
1037.244692
 11
1418.124036
 21
1037.668957
  0
LINE
  8
LAYER10
 62
6
 10
1417.487640
 20
1037.244692
 11
1418.124036
 21
1037.881089
  0
LINE
  8
LAYER10
 62
6
 10
1417.275508
 20
1037.244692
 11
1418.124036
 21
1038.093221
  0
LINE
  8
LAYER10
 62
6
 10
1417.063376
 20
1037.244692
 11
1418.124036
 21
1038.305353
  0
LINE
  8
LAYER10
 62
6
 10
1416.851244
 20
1037.244692
 11
1418.124036
 21
1038.517485
  0
LINE
  8
LAYER10
 62
6
 10
1416.639112
 20
1037.244692
 11
1418.124036
 21
1038.729617
  0
LINE
  8
LAYER10
 62
6
 10
1416.624036
 20
1037.441749
 11
1418.124036
 21
1038.941749
  0
LINE
  8
LAYER10
 62
6
 10
1416.624036
 20
1037.653881
 11
1418.124036
 21
1039.153881
  0
LINE
  8
LAYER10
 62
6
 10
1416.624036
 20
1037.866013
 11
1418.124036
 21
1039.366013
  0
LINE
  8
LAYER10
 62
6
 10
1416.624036
 20
1038.078145
 11
1418.124036
 21
1039.578145
  0
LINE
  8
LAYER10
 62
6
 10
1416.624036
 20
1038.290277
 11
1418.124036
 21
1039.790277
  0
LINE
  8
LAYER10
 62
6
 10
1416.624036
 20
1038.502409
 11
1418.124036
 21
1040.002409
  0
LINE
  8
LAYER10
 62
6
 10
1416.624036
 20
1038.714541
 11
1418.124036
 21
1040.214541
  0
LINE
  8
LAYER10
 62
6
 10
1416.624036
 20
1038.926673
 11
1418.124036
 21
1040.426673
  0
LINE
  8
LAYER10
 62
6
 10
1416.624036
 20
1039.138805
 11
1418.124036
 21
1040.638805
  0
LINE
  8
LAYER10
 62
6
 10
1416.624036
 20
1039.350937
 11
1418.124036
 21
1040.850937
  0
LINE
  8
LAYER10
 62
6
 10
1416.624036
 20
1039.563069
 11
1418.124036
 21
1041.063069
  0
LINE
  8
LAYER10
 62
6
 10
1416.624036
 20
1039.775201
 11
1418.124036
 21
1041.275201
  0
LINE
  8
LAYER10
 62
6
 10
1416.624036
 20
1039.987333
 11
1418.124036
 21
1041.487333
  0
LINE
  8
LAYER10
 62
6
 10
1416.624036
 20
1040.199465
 11
1418.124036
 21
1041.699465
  0
LINE
  8
LAYER10
 62
6
 10
1416.624036
 20
1040.411597
 11
1418.124036
 21
1041.911597
  0
LINE
  8
LAYER10
 62
6
 10
1416.624036
 20
1040.623729
 11
1418.124036
 21
1042.123729
  0
LINE
  8
LAYER10
 62
6
 10
1416.624036
 20
1040.835861
 11
1418.124036
 21
1042.335861
  0
LINE
  8
LAYER10
 62
6
 10
1416.624036
 20
1041.047993
 11
1418.124036
 21
1042.547993
  0
LINE
  8
LAYER10
 62
6
 10
1416.624036
 20
1041.260125
 11
1418.124036
 21
1042.760125
  0
LINE
  8
LAYER10
 62
6
 10
1416.624036
 20
1041.472257
 11
1418.124036
 21
1042.972257
  0
LINE
  8
LAYER10
 62
6
 10
1416.624036
 20
1041.684389
 11
1418.124036
 21
1043.184390
  0
LINE
  8
LAYER10
 62
6
 10
1416.624036
 20
1041.896522
 11
1418.124036
 21
1043.396522
  0
LINE
  8
LAYER10
 62
6
 10
1416.624036
 20
1042.108654
 11
1418.124036
 21
1043.608654
  0
LINE
  8
LAYER10
 62
6
 10
1416.624036
 20
1042.320786
 11
1418.124036
 21
1043.820786
  0
LINE
  8
LAYER10
 62
6
 10
1416.624036
 20
1042.532918
 11
1418.124036
 21
1044.032918
  0
LINE
  8
LAYER10
 62
6
 10
1416.624036
 20
1042.745050
 11
1418.124036
 21
1044.245050
  0
LINE
  8
LAYER10
 62
6
 10
1416.624036
 20
1042.957182
 11
1418.124036
 21
1044.457182
  0
LINE
  8
LAYER10
 62
6
 10
1416.624036
 20
1043.169314
 11
1418.124036
 21
1044.669314
  0
LINE
  8
LAYER10
 62
6
 10
1416.624036
 20
1043.381446
 11
1418.124036
 21
1044.881446
  0
LINE
  8
LAYER10
 62
6
 10
1416.624036
 20
1043.593578
 11
1418.124036
 21
1045.093578
  0
LINE
  8
LAYER10
 62
6
 10
1416.624036
 20
1043.805710
 11
1418.124036
 21
1045.305710
  0
LINE
  8
LAYER10
 62
6
 10
1416.624036
 20
1044.017842
 11
1418.124036
 21
1045.517842
  0
LINE
  8
LAYER10
 62
6
 10
1416.624036
 20
1044.229974
 11
1418.124036
 21
1045.729974
  0
LINE
  8
LAYER10
 62
6
 10
1416.624036
 20
1044.442106
 11
1418.124036
 21
1045.942106
  0
LINE
  8
LAYER10
 62
6
 10
1416.624036
 20
1044.654238
 11
1418.124036
 21
1046.154238
  0
LINE
  8
LAYER10
 62
6
 10
1416.624036
 20
1044.866370
 11
1418.124036
 21
1046.366370
  0
LINE
  8
LAYER10
 62
6
 10
1416.624036
 20
1045.078502
 11
1418.124036
 21
1046.578502
  0
LINE
  8
LAYER10
 62
6
 10
1416.624036
 20
1045.290634
 11
1418.124036
 21
1046.790634
  0
LINE
  8
LAYER10
 62
6
 10
1416.624036
 20
1045.502766
 11
1418.124036
 21
1047.002766
  0
LINE
  8
LAYER10
 62
6
 10
1416.624036
 20
1045.714898
 11
1418.124036
 21
1047.214898
  0
LINE
  8
LAYER10
 62
6
 10
1416.624036
 20
1045.927030
 11
1418.124036
 21
1047.427030
  0
LINE
  8
LAYER10
 62
6
 10
1416.624036
 20
1046.139162
 11
1418.124036
 21
1047.639162
  0
LINE
  8
LAYER10
 62
6
 10
1416.624036
 20
1046.351294
 11
1418.124036
 21
1047.851294
  0
LINE
  8
LAYER10
 62
6
 10
1416.624036
 20
1046.563426
 11
1418.124036
 21
1048.063426
  0
LINE
  8
LAYER10
 62
6
 10
1416.624036
 20
1046.775558
 11
1418.124036
 21
1048.275558
  0
LINE
  8
LAYER10
 62
6
 10
1416.624036
 20
1046.987690
 11
1418.124036
 21
1048.487690
  0
LINE
  8
LAYER10
 62
6
 10
1416.624036
 20
1047.199822
 11
1418.124036
 21
1048.699822
  0
LINE
  8
LAYER10
 62
6
 10
1416.624036
 20
1047.411954
 11
1418.124036
 21
1048.911955
  0
LINE
  8
LAYER10
 62
6
 10
1416.624036
 20
1047.624087
 11
1418.124036
 21
1049.124087
  0
LINE
  8
LAYER10
 62
6
 10
1416.624036
 20
1047.836219
 11
1418.032510
 21
1049.244693
  0
LINE
  8
LAYER10
 62
6
 10
1416.624036
 20
1048.048351
 11
1417.820378
 21
1049.244693
  0
LINE
  8
LAYER10
 62
6
 10
1416.624036
 20
1048.260483
 11
1417.608246
 21
1049.244693
  0
LINE
  8
LAYER10
 62
6
 10
1416.624036
 20
1048.472615
 11
1417.396114
 21
1049.244693
  0
LINE
  8
LAYER10
 62
6
 10
1416.624036
 20
1048.684747
 11
1417.183982
 21
1049.244693
  0
LINE
  8
LAYER10
 62
6
 10
1416.624036
 20
1048.896879
 11
1416.971850
 21
1049.244693
  0
LINE
  8
LAYER10
 62
6
 10
1416.624036
 20
1049.109011
 11
1416.759718
 21
1049.244693
  0
LINE
  8
LAYER6
 62
1
  6
CONTINUOUS
 10
1416.624036
 20
1009.494692
 11
1418.124036
 21
1009.494692
  0
LINE
  8
LAYER6
 62
1
  6
CONTINUOUS
 10
1418.124036
 20
1009.494692
 11
1418.124036
 21
1021.494692
  0
LINE
  8
LAYER6
 62
1
  6
CONTINUOUS
 10
1418.124036
 20
1021.494692
 11
1416.624036
 21
1021.494692
  0
LINE
  8
LAYER6
 62
1
  6
CONTINUOUS
 10
1416.624036
 20
1021.494692
 11
1416.624036
 21
1009.494692
  0
LINE
  8
LAYER10
 62
6
 10
1417.911904
 20
1009.494692
 11
1418.124036
 21
1009.706824
  0
LINE
  8
LAYER10
 62
6
 10
1417.699772
 20
1009.494692
 11
1418.124036
 21
1009.918956
  0
LINE
  8
LAYER10
 62
6
 10
1417.487640
 20
1009.494692
 11
1418.124036
 21
1010.131088
  0
LINE
  8
LAYER10
 62
6
 10
1417.275508
 20
1009.494692
 11
1418.124036
 21
1010.343220
  0
LINE
  8
LAYER10
 62
6
 10
1417.063376
 20
1009.494692
 11
1418.124036
 21
1010.555352
  0
LINE
  8
LAYER10
 62
6
 10
1416.851244
 20
1009.494692
 11
1418.124036
 21
1010.767484
  0
LINE
  8
LAYER10
 62
6
 10
1416.639112
 20
1009.494692
 11
1418.124036
 21
1010.979616
  0
LINE
  8
LAYER10
 62
6
 10
1416.624036
 20
1009.691748
 11
1418.124036
 21
1011.191748
  0
LINE
  8
LAYER10
 62
6
 10
1416.624036
 20
1009.903880
 11
1418.124036
 21
1011.403880
  0
LINE
  8
LAYER10
 62
6
 10
1416.624036
 20
1010.116012
 11
1418.124036
 21
1011.616012
  0
LINE
  8
LAYER10
 62
6
 10
1416.624036
 20
1010.328144
 11
1418.124036
 21
1011.828144
  0
LINE
  8
LAYER10
 62
6
 10
1416.624036
 20
1010.540276
 11
1418.124036
 21
1012.040276
  0
LINE
  8
LAYER10
 62
6
 10
1416.624036
 20
1010.752409
 11
1418.124036
 21
1012.252409
  0
LINE
  8
LAYER10
 62
6
 10
1416.624036
 20
1010.964541
 11
1418.124036
 21
1012.464541
  0
LINE
  8
LAYER10
 62
6
 10
1416.624036
 20
1011.176673
 11
1418.124036
 21
1012.676673
  0
LINE
  8
LAYER10
 62
6
 10
1416.624036
 20
1011.388805
 11
1418.124036
 21
1012.888805
  0
LINE
  8
LAYER10
 62
6
 10
1416.624036
 20
1011.600937
 11
1418.124036
 21
1013.100937
  0
LINE
  8
LAYER10
 62
6
 10
1416.624036
 20
1011.813069
 11
1418.124036
 21
1013.313069
  0
LINE
  8
LAYER10
 62
6
 10
1416.624036
 20
1012.025201
 11
1418.124036
 21
1013.525201
  0
LINE
  8
LAYER10
 62
6
 10
1416.624036
 20
1012.237333
 11
1418.124036
 21
1013.737333
  0
LINE
  8
LAYER10
 62
6
 10
1416.624036
 20
1012.449465
 11
1418.124036
 21
1013.949465
  0
LINE
  8
LAYER10
 62
6
 10
1416.624036
 20
1012.661597
 11
1418.124036
 21
1014.161597
  0
LINE
  8
LAYER10
 62
6
 10
1416.624036
 20
1012.873729
 11
1418.124036
 21
1014.373729
  0
LINE
  8
LAYER10
 62
6
 10
1416.624036
 20
1013.085861
 11
1418.124036
 21
1014.585861
  0
LINE
  8
LAYER10
 62
6
 10
1416.624036
 20
1013.297993
 11
1418.124036
 21
1014.797993
  0
LINE
  8
LAYER10
 62
6
 10
1416.624036
 20
1013.510125
 11
1418.124036
 21
1015.010125
  0
LINE
  8
LAYER10
 62
6
 10
1416.624036
 20
1013.722257
 11
1418.124036
 21
1015.222257
  0
LINE
  8
LAYER10
 62
6
 10
1416.624036
 20
1013.934389
 11
1418.124036
 21
1015.434389
  0
LINE
  8
LAYER10
 62
6
 10
1416.624036
 20
1014.146521
 11
1418.124036
 21
1015.646521
  0
LINE
  8
LAYER10
 62
6
 10
1416.624036
 20
1014.358653
 11
1418.124036
 21
1015.858653
  0
LINE
  8
LAYER10
 62
6
 10
1416.624036
 20
1014.570785
 11
1418.124036
 21
1016.070785
  0
LINE
  8
LAYER10
 62
6
 10
1416.624036
 20
1014.782917
 11
1418.124036
 21
1016.282917
  0
LINE
  8
LAYER10
 62
6
 10
1416.624036
 20
1014.995049
 11
1418.124036
 21
1016.495049
  0
LINE
  8
LAYER10
 62
6
 10
1416.624036
 20
1015.207181
 11
1418.124036
 21
1016.707181
  0
LINE
  8
LAYER10
 62
6
 10
1416.624036
 20
1015.419313
 11
1418.124036
 21
1016.919313
  0
LINE
  8
LAYER10
 62
6
 10
1416.624036
 20
1015.631445
 11
1418.124036
 21
1017.131445
  0
LINE
  8
LAYER10
 62
6
 10
1416.624036
 20
1015.843577
 11
1418.124036
 21
1017.343577
  0
LINE
  8
LAYER10
 62
6
 10
1416.624036
 20
1016.055709
 11
1418.124036
 21
1017.555709
  0
LINE
  8
LAYER10
 62
6
 10
1416.624036
 20
1016.267841
 11
1418.124036
 21
1017.767842
  0
LINE
  8
LAYER10
 62
6
 10
1416.624036
 20
1016.479974
 11
1418.124036
 21
1017.979974
  0
LINE
  8
LAYER10
 62
6
 10
1416.624036
 20
1016.692106
 11
1418.124036
 21
1018.192106
  0
LINE
  8
LAYER10
 62
6
 10
1416.624036
 20
1016.904238
 11
1418.124036
 21
1018.404238
  0
LINE
  8
LAYER10
 62
6
 10
1416.624036
 20
1017.116370
 11
1418.124036
 21
1018.616370
  0
LINE
  8
LAYER10
 62
6
 10
1416.624036
 20
1017.328502
 11
1418.124036
 21
1018.828502
  0
LINE
  8
LAYER10
 62
6
 10
1416.624036
 20
1017.540634
 11
1418.124036
 21
1019.040634
  0
LINE
  8
LAYER10
 62
6
 10
1416.624036
 20
1017.752766
 11
1418.124036
 21
1019.252766
  0
LINE
  8
LAYER10
 62
6
 10
1416.624036
 20
1017.964898
 11
1418.124036
 21
1019.464898
  0
LINE
  8
LAYER10
 62
6
 10
1416.624036
 20
1018.177030
 11
1418.124036
 21
1019.677030
  0
LINE
  8
LAYER10
 62
6
 10
1416.624036
 20
1018.389162
 11
1418.124036
 21
1019.889162
  0
LINE
  8
LAYER10
 62
6
 10
1416.624036
 20
1018.601294
 11
1418.124036
 21
1020.101294
  0
LINE
  8
LAYER10
 62
6
 10
1416.624036
 20
1018.813426
 11
1418.124036
 21
1020.313426
  0
LINE
  8
LAYER10
 62
6
 10
1416.624036
 20
1019.025558
 11
1418.124036
 21
1020.525558
  0
LINE
  8
LAYER10
 62
6
 10
1416.624036
 20
1019.237690
 11
1418.124036
 21
1020.737690
  0
LINE
  8
LAYER10
 62
6
 10
1416.624036
 20
1019.449822
 11
1418.124036
 21
1020.949822
  0
LINE
  8
LAYER10
 62
6
 10
1416.624036
 20
1019.661954
 11
1418.124036
 21
1021.161954
  0
LINE
  8
LAYER10
 62
6
 10
1416.624036
 20
1019.874086
 11
1418.124036
 21
1021.374086
  0
LINE
  8
LAYER10
 62
6
 10
1416.624036
 20
1020.086218
 11
1418.032510
 21
1021.494692
  0
LINE
  8
LAYER10
 62
6
 10
1416.624036
 20
1020.298350
 11
1417.820378
 21
1021.494692
  0
LINE
  8
LAYER10
 62
6
 10
1416.624036
 20
1020.510482
 11
1417.608246
 21
1021.494692
  0
LINE
  8
LAYER10
 62
6
 10
1416.624036
 20
1020.722614
 11
1417.396114
 21
1021.494692
  0
LINE
  8
LAYER10
 62
6
 10
1416.624036
 20
1020.934746
 11
1417.183982
 21
1021.494692
  0
LINE
  8
LAYER10
 62
6
 10
1416.624036
 20
1021.146878
 11
1416.971850
 21
1021.494692
  0
LINE
  8
LAYER10
 62
6
 10
1416.624036
 20
1021.359010
 11
1416.759718
 21
1021.494692
  0
LINE
  8
LAYER6
 62
1
  6
CONTINUOUS
 10
1416.624036
 20
981.744692
 11
1418.124036
 21
981.744692
  0
LINE
  8
LAYER6
 62
1
  6
CONTINUOUS
 10
1418.124036
 20
981.744692
 11
1418.124036
 21
993.744692
  0
LINE
  8
LAYER6
 62
1
  6
CONTINUOUS
 10
1418.124036
 20
993.744692
 11
1416.624036
 21
993.744692
  0
LINE
  8
LAYER6
 62
1
  6
CONTINUOUS
 10
1416.624036
 20
993.744692
 11
1416.624036
 21
981.744692
  0
LINE
  8
LAYER10
 62
6
 10
1417.911904
 20
981.744692
 11
1418.124036
 21
981.956824
  0
LINE
  8
LAYER10
 62
6
 10
1417.699772
 20
981.744692
 11
1418.124036
 21
982.168956
  0
LINE
  8
LAYER10
 62
6
 10
1417.487640
 20
981.744692
 11
1418.124036
 21
982.381088
  0
LINE
  8
LAYER10
 62
6
 10
1417.275508
 20
981.744692
 11
1418.124036
 21
982.593220
  0
LINE
  8
LAYER10
 62
6
 10
1417.063376
 20
981.744692
 11
1418.124036
 21
982.805352
  0
LINE
  8
LAYER10
 62
6
 10
1416.851244
 20
981.744692
 11
1418.124036
 21
983.017484
  0
LINE
  8
LAYER10
 62
6
 10
1416.639112
 20
981.744692
 11
1418.124036
 21
983.229616
  0
LINE
  8
LAYER10
 62
6
 10
1416.624036
 20
981.941748
 11
1418.124036
 21
983.441748
  0
LINE
  8
LAYER10
 62
6
 10
1416.624036
 20
982.153880
 11
1418.124036
 21
983.653880
  0
LINE
  8
LAYER10
 62
6
 10
1416.624036
 20
982.366012
 11
1418.124036
 21
983.866012
  0
LINE
  8
LAYER10
 62
6
 10
1416.624036
 20
982.578144
 11
1418.124036
 21
984.078144
  0
LINE
  8
LAYER10
 62
6
 10
1416.624036
 20
982.790276
 11
1418.124036
 21
984.290276
  0
LINE
  8
LAYER10
 62
6
 10
1416.624036
 20
983.002408
 11
1418.124036
 21
984.502408
  0
LINE
  8
LAYER10
 62
6
 10
1416.624036
 20
983.214540
 11
1418.124036
 21
984.714540
  0
LINE
  8
LAYER10
 62
6
 10
1416.624036
 20
983.426672
 11
1418.124036
 21
984.926672
  0
LINE
  8
LAYER10
 62
6
 10
1416.624036
 20
983.638804
 11
1418.124036
 21
985.138804
  0
LINE
  8
LAYER10
 62
6
 10
1416.624036
 20
983.850936
 11
1418.124036
 21
985.350936
  0
LINE
  8
LAYER10
 62
6
 10
1416.624036
 20
984.063068
 11
1418.124036
 21
985.563068
  0
LINE
  8
LAYER10
 62
6
 10
1416.624036
 20
984.275200
 11
1418.124036
 21
985.775200
  0
LINE
  8
LAYER10
 62
6
 10
1416.624036
 20
984.487332
 11
1418.124036
 21
985.987332
  0
LINE
  8
LAYER10
 62
6
 10
1416.624036
 20
984.699464
 11
1418.124036
 21
986.199464
  0
LINE
  8
LAYER10
 62
6
 10
1416.624036
 20
984.911596
 11
1418.124036
 21
986.411596
  0
LINE
  8
LAYER10
 62
6
 10
1416.624036
 20
985.123728
 11
1418.124036
 21
986.623728
  0
LINE
  8
LAYER10
 62
6
 10
1416.624036
 20
985.335861
 11
1418.124036
 21
986.835861
  0
LINE
  8
LAYER10
 62
6
 10
1416.624036
 20
985.547993
 11
1418.124036
 21
987.047993
  0
LINE
  8
LAYER10
 62
6
 10
1416.624036
 20
985.760125
 11
1418.124036
 21
987.260125
  0
LINE
  8
LAYER10
 62
6
 10
1416.624036
 20
985.972257
 11
1418.124036
 21
987.472257
  0
LINE
  8
LAYER10
 62
6
 10
1416.624036
 20
986.184389
 11
1418.124036
 21
987.684389
  0
LINE
  8
LAYER10
 62
6
 10
1416.624036
 20
986.396521
 11
1418.124036
 21
987.896521
  0
LINE
  8
LAYER10
 62
6
 10
1416.624036
 20
986.608653
 11
1418.124036
 21
988.108653
  0
LINE
  8
LAYER10
 62
6
 10
1416.624036
 20
986.820785
 11
1418.124036
 21
988.320785
  0
LINE
  8
LAYER10
 62
6
 10
1416.624036
 20
987.032917
 11
1418.124036
 21
988.532917
  0
LINE
  8
LAYER10
 62
6
 10
1416.624036
 20
987.245049
 11
1418.124036
 21
988.745049
  0
LINE
  8
LAYER10
 62
6
 10
1416.624036
 20
987.457181
 11
1418.124036
 21
988.957181
  0
LINE
  8
LAYER10
 62
6
 10
1416.624036
 20
987.669313
 11
1418.124036
 21
989.169313
  0
LINE
  8
LAYER10
 62
6
 10
1416.624036
 20
987.881445
 11
1418.124036
 21
989.381445
  0
LINE
  8
LAYER10
 62
6
 10
1416.624036
 20
988.093577
 11
1418.124036
 21
989.593577
  0
LINE
  8
LAYER10
 62
6
 10
1416.624036
 20
988.305709
 11
1418.124036
 21
989.805709
  0
LINE
  8
LAYER10
 62
6
 10
1416.624036
 20
988.517841
 11
1418.124036
 21
990.017841
  0
LINE
  8
LAYER10
 62
6
 10
1416.624036
 20
988.729973
 11
1418.124036
 21
990.229973
  0
LINE
  8
LAYER10
 62
6
 10
1416.624036
 20
988.942105
 11
1418.124036
 21
990.442105
  0
LINE
  8
LAYER10
 62
6
 10
1416.624036
 20
989.154237
 11
1418.124036
 21
990.654237
  0
LINE
  8
LAYER10
 62
6
 10
1416.624036
 20
989.366369
 11
1418.124036
 21
990.866369
  0
LINE
  8
LAYER10
 62
6
 10
1416.624036
 20
989.578501
 11
1418.124036
 21
991.078501
  0
LINE
  8
LAYER10
 62
6
 10
1416.624036
 20
989.790633
 11
1418.124036
 21
991.290633
  0
LINE
  8
LAYER10
 62
6
 10
1416.624036
 20
990.002765
 11
1418.124036
 21
991.502765
  0
LINE
  8
LAYER10
 62
6
 10
1416.624036
 20
990.214897
 11
1418.124036
 21
991.714897
  0
LINE
  8
LAYER10
 62
6
 10
1416.624036
 20
990.427029
 11
1418.124036
 21
991.927029
  0
LINE
  8
LAYER10
 62
6
 10
1416.624036
 20
990.639161
 11
1418.124036
 21
992.139161
  0
LINE
  8
LAYER10
 62
6
 10
1416.624036
 20
990.851293
 11
1418.124036
 21
992.351294
  0
LINE
  8
LAYER10
 62
6
 10
1416.624036
 20
991.063426
 11
1418.124036
 21
992.563426
  0
LINE
  8
LAYER10
 62
6
 10
1416.624036
 20
991.275558
 11
1418.124036
 21
992.775558
  0
LINE
  8
LAYER10
 62
6
 10
1416.624036
 20
991.487690
 11
1418.124036
 21
992.987690
  0
LINE
  8
LAYER10
 62
6
 10
1416.624036
 20
991.699822
 11
1418.124036
 21
993.199822
  0
LINE
  8
LAYER10
 62
6
 10
1416.624036
 20
991.911954
 11
1418.124036
 21
993.411954
  0
LINE
  8
LAYER10
 62
6
 10
1416.624036
 20
992.124086
 11
1418.124036
 21
993.624086
  0
LINE
  8
LAYER10
 62
6
 10
1416.624036
 20
992.336218
 11
1418.032510
 21
993.744692
  0
LINE
  8
LAYER10
 62
6
 10
1416.624036
 20
992.548350
 11
1417.820378
 21
993.744692
  0
LINE
  8
LAYER10
 62
6
 10
1416.624036
 20
992.760482
 11
1417.608246
 21
993.744692
  0
LINE
  8
LAYER10
 62
6
 10
1416.624036
 20
992.972614
 11
1417.396114
 21
993.744692
  0
LINE
  8
LAYER10
 62
6
 10
1416.624036
 20
993.184746
 11
1417.183982
 21
993.744692
  0
LINE
  8
LAYER10
 62
6
 10
1416.624036
 20
993.396878
 11
1416.971850
 21
993.744692
  0
LINE
  8
LAYER10
 62
6
 10
1416.624036
 20
993.609010
 11
1416.759718
 21
993.744692
  0
ARC
  8
LAYER6
 62
1
  6
CONTINUOUS
 10
1412.949036
 20
921.498706
 40
0.375000
 50
0.000000
 51
90.000000
  0
ARC
  8
LAYER6
 62
1
  6
CONTINUOUS
 10
1411.149036
 20
921.498706
 40
0.375000
 50
90.000000
 51
180.000000
  0
ARC
  8
LAYER6
 62
1
  6
CONTINUOUS
 10
1411.149036
 20
893.748706
 40
0.375000
 50
90.000000
 51
180.000000
  0
ARC
  8
LAYER6
 62
1
  6
CONTINUOUS
 10
1412.949036
 20
893.748706
 40
0.375000
 50
0.000000
 51
90.000000
  0
ARC
  8
LAYER6
 62
1
  6
CONTINUOUS
 10
1411.149036
 20
865.998706
 40
0.375000
 50
90.000000
 51
180.000000
  0
ARC
  8
LAYER6
 62
1
  6
CONTINUOUS
 10
1412.949036
 20
865.998706
 40
0.375000
 50
0.000000
 51
90.000000
  0
ARC
  8
LAYER6
 62
1
  6
CONTINUOUS
 10
1410.549036
 20
936.162552
 40
0.375000
 50
90.000000
 51
180.000000
  0
ARC
  8
LAYER6
 62
1
  6
CONTINUOUS
 10
1413.549036
 20
936.162552
 40
0.375000
 50
0.000000
 51
90.000000
  0
ARC
  8
LAYER6
 62
1
  6
CONTINUOUS
 10
1410.549036
 20
930.462552
 40
0.375000
 50
180.000000
 51
270.000000
  0
ARC
  8
LAYER6
 62
1
  6
CONTINUOUS
 10
1413.549036
 20
930.462552
 40
0.375000
 50
270.000000
 51
0.000000
  0
CIRCLE
  8
LAYER6
 62
1
  6
CONTINUOUS
 10
1412.049036
 20
933.462552
 40
0.900000
  0
ARC
  8
LAYER6
 62
1
  6
CONTINUOUS
 10
1410.549036
 20
908.412552
 40
0.375000
 50
90.000000
 51
180.000000
  0
ARC
  8
LAYER6
 62
1
  6
CONTINUOUS
 10
1413.549036
 20
908.412552
 40
0.375000
 50
0.000000
 51
90.000000
  0
ARC
  8
LAYER6
 62
1
  6
CONTINUOUS
 10
1410.549036
 20
902.712552
 40
0.375000
 50
180.000000
 51
270.000000
  0
ARC
  8
LAYER6
 62
1
  6
CONTINUOUS
 10
1413.549036
 20
902.712552
 40
0.375000
 50
270.000000
 51
0.000000
  0
CIRCLE
  8
LAYER6
 62
1
  6
CONTINUOUS
 10
1412.049036
 20
905.712552
 40
0.900000
  0
ARC
  8
LAYER6
 62
1
  6
CONTINUOUS
 10
1410.549036
 20
880.662552
 40
0.375000
 50
90.000000
 51
180.000000
  0
ARC
  8
LAYER6
 62
1
  6
CONTINUOUS
 10
1413.549036
 20
880.662552
 40
0.375000
 50
0.000000
 51
90.000000
  0
ARC
  8
LAYER6
 62
1
  6
CONTINUOUS
 10
1410.549036
 20
874.962552
 40
0.375000
 50
180.000000
 51
270.000000
  0
ARC
  8
LAYER6
 62
1
  6
CONTINUOUS
 10
1413.549036
 20
874.962552
 40
0.375000
 50
270.000000
 51
0.000000
  0
CIRCLE
  8
LAYER6
 62
1
  6
CONTINUOUS
 10
1412.049036
 20
877.962552
 40
0.900000
  0
ARC
  8
LAYER3
 62
3
  6
CONTINUOUS
 10
1410.819036
 20
939.918706
 40
0.045000
 50
180.000000
 51
270.000000
  0
ARC
  8
LAYER3
 62
3
  6
CONTINUOUS
 10
1410.819036
 20
940.578706
 40
0.045000
 50
90.000000
 51
180.000000
  0
ARC
  8
LAYER3
 62
3
  6
CONTINUOUS
 10
1413.279036
 20
939.918706
 40
0.045000
 50
270.000000
 51
0.000000
  0
ARC
  8
LAYER3
 62
3
  6
CONTINUOUS
 10
1413.279036
 20
940.578706
 40
0.045000
 50
0.000000
 51
90.000000
  0
ARC
  8
LAYER3
 62
3
  6
CONTINUOUS
 10
1410.819036
 20
938.418706
 40
0.045000
 50
180.000000
 51
270.000000
  0
ARC
  8
LAYER3
 62
3
  6
CONTINUOUS
 10
1410.819036
 20
939.078706
 40
0.045000
 50
90.000000
 51
180.000000
  0
ARC
  8
LAYER3
 62
3
  6
CONTINUOUS
 10
1413.279036
 20
938.418706
 40
0.045000
 50
270.000000
 51
0.000000
  0
ARC
  8
LAYER3
 62
3
  6
CONTINUOUS
 10
1413.279036
 20
939.078706
 40
0.045000
 50
0.000000
 51
90.000000
  0
ARC
  8
LAYER3
 62
3
  6
CONTINUOUS
 10
1410.819036
 20
912.168706
 40
0.045000
 50
180.000000
 51
270.000000
  0
ARC
  8
LAYER3
 62
3
  6
CONTINUOUS
 10
1410.819036
 20
912.828706
 40
0.045000
 50
90.000000
 51
180.000000
  0
ARC
  8
LAYER3
 62
3
  6
CONTINUOUS
 10
1413.279036
 20
912.168706
 40
0.045000
 50
270.000000
 51
0.000000
  0
ARC
  8
LAYER3
 62
3
  6
CONTINUOUS
 10
1413.279036
 20
912.828706
 40
0.045000
 50
0.000000
 51
90.000000
  0
ARC
  8
LAYER3
 62
3
  6
CONTINUOUS
 10
1410.819036
 20
910.668706
 40
0.045000
 50
180.000000
 51
270.000000
  0
ARC
  8
LAYER3
 62
3
  6
CONTINUOUS
 10
1410.819036
 20
911.328706
 40
0.045000
 50
90.000000
 51
180.000000
  0
ARC
  8
LAYER3
 62
3
  6
CONTINUOUS
 10
1413.279036
 20
910.668706
 40
0.045000
 50
270.000000
 51
0.000000
  0
ARC
  8
LAYER3
 62
3
  6
CONTINUOUS
 10
1413.279036
 20
911.328706
 40
0.045000
 50
0.000000
 51
90.000000
  0
ARC
  8
LAYER3
 62
3
  6
CONTINUOUS
 10
1410.819036
 20
884.418706
 40
0.045000
 50
180.000000
 51
270.000000
  0
ARC
  8
LAYER3
 62
3
  6
CONTINUOUS
 10
1410.819036
 20
885.078706
 40
0.045000
 50
90.000000
 51
180.000000
  0
ARC
  8
LAYER3
 62
3
  6
CONTINUOUS
 10
1413.279036
 20
884.418706
 40
0.045000
 50
270.000000
 51
0.000000
  0
ARC
  8
LAYER3
 62
3
  6
CONTINUOUS
 10
1413.279036
 20
885.078706
 40
0.045000
 50
0.000000
 51
90.000000
  0
ARC
  8
LAYER3
 62
3
  6
CONTINUOUS
 10
1410.819036
 20
882.918706
 40
0.045000
 50
180.000000
 51
270.000000
  0
ARC
  8
LAYER3
 62
3
  6
CONTINUOUS
 10
1410.819036
 20
883.578706
 40
0.045000
 50
90.000000
 51
180.000000
  0
ARC
  8
LAYER3
 62
3
  6
CONTINUOUS
 10
1413.279036
 20
882.918706
 40
0.045000
 50
270.000000
 51
0.000000
  0
ARC
  8
LAYER3
 62
3
  6
CONTINUOUS
 10
1413.279036
 20
883.578706
 40
0.045000
 50
0.000000
 51
90.000000
  0
ARC
  8
LAYER6
 62
1
  6
CONTINUOUS
 10
1416.849036
 20
1005.819692
 40
0.225000
 50
90.000000
 51
180.000000
  0
ARC
  8
LAYER6
 62
1
  6
CONTINUOUS
 10
1416.849036
 20
1033.569692
 40
0.225000
 50
90.000000
 51
180.000000
  0
ARC
  8
LAYER6
 62
1
  6
CONTINUOUS
 10
1419.174036
 20
981.369692
 40
0.375000
 50
0.000000
 51
90.000000
  0
ARC
  8
LAYER6
 62
1
  6
CONTINUOUS
 10
1419.174036
 20
1036.869692
 40
0.375000
 50
0.000000
 51
90.000000
  0
ARC
  8
LAYER6
 62
1
  6
CONTINUOUS
 10
1419.174036
 20
1009.119692
 40
0.375000
 50
0.000000
 51
90.000000
  0
ARC
  8
LAYER6
 62
1
  6
CONTINUOUS
 10
1416.774036
 20
978.144692
 40
0.150000
 50
90.000000
 51
180.000000
  0
ARC
  8
LAYER6
 62
1
  6
CONTINUOUS
 10
1416.624036
 20
1037.544692
 40
0.300000
 50
150.000000
 51
270.000000
  0
ARC
  8
LAYER6
 62
1
  6
CONTINUOUS
 10
1416.624036
 20
1009.794692
 40
0.300000
 50
150.000000
 51
270.000000
  0
ARC
  8
LAYER6
 62
1
  6
CONTINUOUS
 10
1416.624036
 20
982.044692
 40
0.300000
 50
150.000000
 51
270.000000
  0
ARC
  8
LAYER6
 62
1
  6
CONTINUOUS
 10
1418.124036
 20
1037.319692
 40
0.075000
 50
270.000000
 51
360.000000
  0
ARC
  8
LAYER6
 62
1
  6
CONTINUOUS
 10
1418.124036
 20
1009.569692
 40
0.075000
 50
270.000000
 51
360.000000
  0
ARC
  8
LAYER6
 62
1
  6
CONTINUOUS
 10
1418.124036
 20
981.819692
 40
0.075000
 50
270.000000
 51
360.000000
  0
ARC
  8
LAYER6
 62
1
  6
CONTINUOUS
 10
1418.109036
 20
1049.169692
 40
0.075000
 50
0.000000
 51
90.000000
  0
ARC
  8
LAYER6
 62
1
  6
CONTINUOUS
 10
1418.109036
 20
1021.419692
 40
0.075000
 50
0.000000
 51
90.000000
  0
ARC
  8
LAYER6
 62
1
  6
CONTINUOUS
 10
1418.109036
 20
993.669692
 40
0.075000
 50
0.000000
 51
90.000000
  0
TEXT
  8
LAYER11
 62
7
 10
1384.774169
 20
878.213731
 40
1.875000
 41
0.700000
  1
10Nm
 50
0.000000
 51
0.000000
 72
     0
 11
1384.774169
 21
878.213731
  0
TEXT
  8
LAYER11
 62
7
 10
1390.024169
 20
879.463731
 40
1.250000
 41
0.700000
  1
+0
 50
0.000000
 51
0.000000
 72
     0
 11
1390.024169
 21
879.463731
  0
TEXT
  8
LAYER11
 62
7
 10
1390.024169
 20
877.588731
 40
1.250000
 41
0.700000
  1
-1.5
 50
0.000000
 51
0.000000
 72
     0
 11
1390.024169
 21
877.588731
  0
TEXT
  8
LAYER11
 62
7
 10
1393.524168
 20
878.213731
 40
1.875000
 41
0.700000
  1
Nm
 50
0.000000
 51
0.000000
 72
     0
 11
1393.524168
 21
878.213731
  0
TEXT
  8
LAYER11
 62
7
 10
1384.774169
 20
941.840089
 40
1.875000
 41
0.700000
  1
20Nm
 50
0.000000
 51
0.000000
 72
     0
 11
1384.774169
 21
941.840089
  0
TEXT
  8
LAYER11
 62
7
 10
1390.024169
 20
943.090089
 40
1.250000
 41
0.700000
  1
+0
 50
0.000000
 51
0.000000
 72
     0
 11
1390.024169
 21
943.090089
  0
TEXT
  8
LAYER11
 62
7
 10
1390.024169
 20
941.215089
 40
1.250000
 41
0.700000
  1
-2
 50
0.000000
 51
0.000000
 72
     0
 11
1390.024169
 21
941.215089
  0
TEXT
  8
LAYER11
 62
7
 10
1391.774168
 20
941.840089
 40
1.875000
 41
0.700000
  1
Nm
 50
0.000000
 51
0.000000
 72
     0
 11
1391.774168
 21
941.840089
  0
TEXT
  8
LAYER11
 62
7
 10
1362.351706
 20
947.584622
 40
1.875000
 41
0.700000
  1
4 Traegerbefestigungsloecher
 50
0.000000
 51
0.000000
 72
     0
 11
1362.351706
 21
947.584622
  0
TEXT
  8
LAYER11
 62
7
 10
1362.351706
 20
944.772122
 40
1.875000
 41
0.700000
  1
(Innensechskant-Schraube M8
 50
0.000000
 51
0.000000
 72
     0
 11
1362.351706
 21
944.772122
  0
TEXT
  8
LAYER11
 62
7
 10
1362.351706
 20
941.959622
 40
1.875000
 41
0.700000
  1
Anzugsdrehmoment:        )
 50
0.000000
 51
0.000000
 72
     0
 11
1362.351706
 21
941.959622
  0
TEXT
  8
LAYER11
 62
7
 10
1362.351706
 20
883.958264
 40
1.875000
 41
0.700000
  1
3 Sammelschienenklemmen
 50
0.000000
 51
0.000000
 72
     0
 11
1362.351706
 21
883.958264
  0
TEXT
  8
LAYER11
 62
7
 10
1362.351706
 20
881.145764
 40
1.875000
 41
0.700000
  1
(Innensechskant-Schraube M6
 50
0.000000
 51
0.000000
 72
     0
 11
1362.351706
 21
881.145764
  0
TEXT
  8
LAYER11
 62
7
 10
1362.351706
 20
878.333264
 40
1.875000
 41
0.700000
  1
Anzugsdrehmoment:         )
 50
0.000000
 51
0.000000
 72
     0
 11
1362.351706
 21
878.333264
  0
TEXT
  8
LAYER11
 62
1
 10
1388.190175
 20
1085.032846
 40
5.000000
 41
0.500000
  1
00081
 50
0.000000
 51
0.000000
 72
     0
 11
1388.190175
 21
1085.032846
  0
TEXT
  8
LAYER11
 62
1
 10
1304.467493
 20
1085.032846
 40
5.000000
 41
0.500000
  1
SST 185/10
 50
0.000000
 51
0.000000
 72
     0
 11
1304.467493
 21
1085.032846
  0
LINE
  8
LAYER6
 62
1
  6
CONTINUOUS
 10
1418.124036
 20
1011.144692
 11
1418.124036
 21
1009.794692
  0
LINE
  8
LAYER6
 62
1
  6
CONTINUOUS
 10
1418.349036
 20
1011.369692
 11
1418.124036
 21
1011.144692
  0
LINE
  8
LAYER6
 62
1
  6
CONTINUOUS
 10
1418.124036
 20
983.394692
 11
1418.124036
 21
982.044692
  0
LINE
  8
LAYER6
 62
1
  6
CONTINUOUS
 10
1418.349036
 20
983.619692
 11
1418.124036
 21
983.394692
  0
LINE
  8
LAYER6
 62
1
  6
CONTINUOUS
 10
1418.124036
 20
1038.894692
 11
1418.124036
 21
1037.544692
  0
LINE
  8
LAYER6
 62
1
  6
CONTINUOUS
 10
1418.349036
 20
1039.119692
 11
1418.124036
 21
1038.894692
  0
LINE
  8
LAYER6
 62
1
  6
CONTINUOUS
 10
1416.624036
 20
1010.394692
 11
1416.624036
 21
1033.194692
  0
LINE
  8
LAYER6
 62
1
  6
CONTINUOUS
 10
1419.549036
 20
980.769692
 11
1417.074036
 21
978.294692
  0
LINE
  8
LAYER6
 62
1
  6
CONTINUOUS
 10
1419.549036
 20
1008.519692
 11
1417.074036
 21
1006.044692
  0
LINE
  8
LAYER6
 62
1
  6
CONTINUOUS
 10
1419.549036
 20
1036.269692
 11
1417.074036
 21
1033.794692
  0
LINE
  8
LAYER6
 62
1
  6
CONTINUOUS
 10
1419.174036
 20
1011.369692
 11
1418.349036
 21
1011.369692
  0
LINE
  8
LAYER6
 62
1
  6
CONTINUOUS
 10
1419.174036
 20
983.619692
 11
1418.349036
 21
983.619692
  0
LINE
  8
LAYER6
 62
1
  6
CONTINUOUS
 10
1419.174036
 20
1039.119692
 11
1418.349036
 21
1039.119692
  0
LINE
  8
LAYER6
 62
1
  6
CONTINUOUS
 10
1416.849036
 20
1033.794692
 11
1417.074036
 21
1033.794692
  0
LINE
  8
LAYER6
 62
1
  6
CONTINUOUS
 10
1416.624036
 20
1033.569692
 11
1416.624036
 21
1033.194692
  0
LINE
  8
LAYER6
 62
1
  6
CONTINUOUS
 10
1416.849036
 20
1006.044692
 11
1417.074036
 21
1006.044692
  0
LINE
  8
LAYER6
 62
1
  6
CONTINUOUS
 10
1416.624036
 20
1005.819692
 11
1416.624036
 21
982.644692
  0
LINE
  8
LAYER6
 62
1
  6
CONTINUOUS
 10
1416.624036
 20
981.744692
 11
1419.174036
 21
981.744692
  0
LINE
  8
LAYER6
 62
1
  6
CONTINUOUS
 10
1419.549036
 20
983.244692
 11
1419.549036
 21
980.769692
  0
LINE
  8
LAYER6
 62
1
  6
CONTINUOUS
 10
1419.549036
 20
1038.744692
 11
1419.549036
 21
1036.269692
  0
LINE
  8
LAYER6
 62
1
  6
CONTINUOUS
 10
1416.624036
 20
1009.494692
 11
1419.174036
 21
1009.494692
  0
LINE
  8
LAYER6
 62
1
  6
CONTINUOUS
 10
1419.549036
 20
1010.994692
 11
1419.549036
 21
1008.519692
  0
LINE
  8
LAYER5
 62
7
  6
CENTER
 10
1410.910579
 20
979.944692
 11
1418.515529
 21
979.944692
  0
LINE
  8
LAYER6
 62
1
  6
CONTINUOUS
 10
1412.274036
 20
978.144692
 11
1416.624036
 21
978.144692
  0
LINE
  8
LAYER6
 62
1
  6
CONTINUOUS
 10
1412.049036
 20
978.369692
 11
1412.274036
 21
978.144692
  0
LINE
  8
LAYER6
 62
1
  6
CONTINUOUS
 10
1412.274036
 20
1004.394692
 11
1412.274036
 21
981.744692
  0
LINE
  8
LAYER6
 62
1
  6
CONTINUOUS
 10
1412.049036
 20
981.519692
 11
1412.274036
 21
981.744692
  0
LINE
  8
LAYER6
 62
1
  6
CONTINUOUS
 10
1412.049036
 20
978.369692
 11
1412.049036
 21
981.519692
  0
LINE
  8
LAYER6
 62
1
  6
CONTINUOUS
 10
1416.774036
 20
978.294692
 11
1417.074036
 21
978.294692
  0
LINE
  8
LAYER6
 62
1
  6
CONTINUOUS
 10
1412.049036
 20
1007.769692
 11
1412.274036
 21
1007.994692
  0
LINE
  8
LAYER6
 62
1
  6
CONTINUOUS
 10
1412.049036
 20
1004.618521
 11
1412.049036
 21
1007.769692
  0
LINE
  8
LAYER6
 62
1
  6
CONTINUOUS
 10
1412.048450
 20
1004.619107
 11
1412.272864
 21
1004.394692
  0
LINE
  8
LAYER6
 62
1
  6
CONTINUOUS
 10
1412.272864
 20
1004.394692
 11
1412.274036
 21
1004.394692
  0
LINE
  8
LAYER5
 62
7
  6
CENTER
 10
1410.910579
 20
1006.194692
 11
1418.515529
 21
1006.194692
  0
LINE
  8
LAYER6
 62
1
  6
CONTINUOUS
 10
1412.274036
 20
1030.644692
 11
1412.274036
 21
1007.994692
  0
LINE
  8
LAYER6
 62
1
  6
CONTINUOUS
 10
1412.049036
 20
1030.869692
 11
1412.274036
 21
1030.644692
  0
LINE
  8
LAYER6
 62
1
  6
CONTINUOUS
 10
1412.049036
 20
1034.019692
 11
1412.274036
 21
1034.244692
  0
LINE
  8
LAYER6
 62
1
  6
CONTINUOUS
 10
1412.049036
 20
1030.869692
 11
1412.049036
 21
1034.019692
  0
LINE
  8
LAYER5
 62
7
  6
CENTER
 10
1411.511915
 20
1032.444692
 11
1416.213211
 21
1032.444692
  0
LINE
  8
LAYER6
 62
1
  6
CONTINUOUS
 10
1416.624036
 20
1038.144692
 11
1416.624036
 21
1064.244692
  0
LINE
  8
LAYER6
 62
1
  6
CONTINUOUS
 10
1412.274036
 20
1064.244692
 11
1416.624036
 21
1064.244692
  0
LINE
  8
LAYER6
 62
1
  6
CONTINUOUS
 10
1412.049036
 20
1060.869692
 11
1412.274036
 21
1060.644692
  0
LINE
  8
LAYER6
 62
1
  6
CONTINUOUS
 10
1412.274036
 20
1034.244692
 11
1412.274036
 21
1060.644692
  0
LINE
  8
LAYER6
 62
1
  6
CONTINUOUS
 10
1412.049036
 20
1064.019692
 11
1412.049036
 21
1060.869692
  0
LINE
  8
LAYER6
 62
1
  6
CONTINUOUS
 10
1419.174036
 20
1037.244692
 11
1416.657758
 21
1037.244692
  0
ARC
  8
LAYER6
 62
1
  6
CONTINUOUS
 10
1419.174036
 20
983.244692
 40
0.375000
 50
0.000000
 51
90.000000
  0
ARC
  8
LAYER6
 62
1
  6
CONTINUOUS
 10
1419.174036
 20
1010.994692
 40
0.375000
 50
0.000000
 51
90.000000
  0
ARC
  8
LAYER6
 62
1
  6
CONTINUOUS
 10
1419.174036
 20
1038.744692
 40
0.375000
 50
0.000000
 51
90.000000
  0
LINE
  8
LAYER5
 62
7
  6
CENTER
 10
1411.361915
 20
1062.444692
 11
1416.063211
 21
1062.444692
  0
LINE
  8
LAYER6
 62
1
  6
CONTINUOUS
 10
1419.534036
 20
1047.708538
 11
1419.534036
 21
1052.358538
  0
LINE
  8
LAYER6
 62
1
  6
CONTINUOUS
 10
1419.159036
 20
1047.333538
 11
1418.334036
 21
1047.333538
  0
LINE
  8
LAYER6
 62
1
  6
CONTINUOUS
 10
1418.109036
 20
1047.558538
 11
1418.109036
 21
1048.869692
  0
LINE
  8
LAYER5
 62
7
  6
CENTER
 10
1414.824036
 20
1050.708538
 11
1419.812200
 21
1050.708538
  0
LINE
  8
LAYER6
 62
1
  6
CONTINUOUS
 10
1418.109036
 20
1053.783538
 11
1416.624036
 21
1053.783538
  0
LINE
  8
LAYER6
 62
1
  6
CONTINUOUS
 10
1416.624036
 20
1053.783538
 11
1416.624036
 21
1049.244692
  0
ARC
  8
LAYER6
 62
1
  6
CONTINUOUS
 10
1419.159036
 20
1047.708538
 40
0.375000
 50
270.000000
 51
0.000000
  0
LINE
  8
LAYER6
 62
1
  6
CONTINUOUS
 10
1419.534036
 20
1019.958538
 11
1419.534036
 21
1024.608538
  0
LINE
  8
LAYER6
 62
1
  6
CONTINUOUS
 10
1419.159036
 20
1019.583538
 11
1418.334036
 21
1019.583538
  0
LINE
  8
LAYER6
 62
1
  6
CONTINUOUS
 10
1418.109036
 20
1019.808538
 11
1418.109036
 21
1021.119692
  0
LINE
  8
LAYER5
 62
7
  6
CENTER
 10
1414.824036
 20
1022.958538
 11
1419.812200
 21
1022.958538
  0
LINE
  8
LAYER6
 62
1
  6
CONTINUOUS
 10
1418.109036
 20
1026.033538
 11
1416.624036
 21
1026.033538
  0
LINE
  8
LAYER6
 62
1
  6
CONTINUOUS
 10
1416.624036
 20
1026.033538
 11
1416.624036
 21
1021.494692
  0
ARC
  8
LAYER6
 62
1
  6
CONTINUOUS
 10
1419.159036
 20
1019.958538
 40
0.375000
 50
270.000000
 51
0.000000
  0
LINE
  8
LAYER6
 62
1
  6
CONTINUOUS
 10
1419.534036
 20
992.208538
 11
1419.534036
 21
996.858538
  0
LINE
  8
LAYER6
 62
1
  6
CONTINUOUS
 10
1419.159036
 20
991.833538
 11
1418.334036
 21
991.833538
  0
LINE
  8
LAYER6
 62
1
  6
CONTINUOUS
 10
1418.109036
 20
992.058538
 11
1418.109036
 21
993.369692
  0
LINE
  8
LAYER5
 62
7
  6
CENTER
 10
1414.824036
 20
995.208538
 11
1419.812200
 21
995.208538
  0
LINE
  8
LAYER6
 62
1
  6
CONTINUOUS
 10
1418.109036
 20
998.283538
 11
1416.624036
 21
998.283538
  0
LINE
  8
LAYER6
 62
1
  6
CONTINUOUS
 10
1416.624036
 20
998.283538
 11
1416.624036
 21
993.744692
  0
ARC
  8
LAYER6
 62
1
  6
CONTINUOUS
 10
1419.159036
 20
992.208538
 40
0.375000
 50
270.000000
 51
0.000000
  0
LINE
  8
LAYER6
 62
1
  6
CONTINUOUS
 10
1413.924036
 20
888.648706
 11
1413.324036
 21
888.648706
  0
LINE
  8
LAYER6
 62
1
  6
CONTINUOUS
 10
1413.924036
 20
919.023706
 11
1413.324036
 21
919.023706
  0
LINE
  8
LAYER6
 62
1
  6
CONTINUOUS
 10
1413.924036
 20
891.273706
 11
1413.324036
 21
891.273706
  0
LINE
  8
LAYER6
 62
1
  6
CONTINUOUS
 10
1410.774036
 20
888.648706
 11
1410.174036
 21
888.648706
  0
LINE
  8
LAYER6
 62
1
  6
CONTINUOUS
 10
1410.774036
 20
919.023706
 11
1410.174036
 21
919.023706
  0
LINE
  8
LAYER6
 62
1
  6
CONTINUOUS
 10
1410.774036
 20
891.273706
 11
1410.174036
 21
891.273706
  0
LINE
  8
LAYER6
 62
1
  6
CONTINUOUS
 10
1413.924036
 20
861.048706
 11
1413.324036
 21
861.048706
  0
LINE
  8
LAYER6
 62
1
  6
CONTINUOUS
 10
1410.774036
 20
861.048706
 11
1410.174036
 21
861.048706
  0
LINE
  8
LAYER6
 62
1
  6
CONTINUOUS
 10
1413.924036
 20
863.523706
 11
1413.324036
 21
863.523706
  0
LINE
  8
LAYER6
 62
1
  6
CONTINUOUS
 10
1410.774036
 20
863.523706
 11
1410.174036
 21
863.523706
  0
LINE
  8
LAYER6
 62
1
  6
CONTINUOUS
 10
1412.874036
 20
863.973706
 11
1411.224036
 21
863.973706
  0
LINE
  8
LAYER6
 62
1
  6
CONTINUOUS
 10
1412.949036
 20
921.873706
 11
1411.149036
 21
921.873706
  0
LINE
  8
LAYER6
 62
1
  6
CONTINUOUS
 10
1412.949036
 20
866.373706
 11
1411.149036
 21
866.373706
  0
LINE
  8
LAYER5
 62
7
  6
CENTER
 10
1414.684963
 20
915.198706
 11
1409.709186
 21
915.198706
  0
LINE
  8
LAYER5
 62
7
  6
CENTER
 10
1414.834963
 20
862.698706
 11
1409.709186
 21
862.698706
  0
LINE
  8
LAYER6
 62
1
  6
CONTINUOUS
 10
1413.924036
 20
860.898706
 11
1410.174036
 21
860.898706
  0
LINE
  8
LAYER6
 62
1
  6
CONTINUOUS
 10
1413.324036
 20
863.523706
 11
1413.324036
 21
860.898706
  0
LINE
  8
LAYER6
 62
1
  6
CONTINUOUS
 10
1410.774036
 20
863.523706
 11
1410.774036
 21
860.898706
  0
LINE
  8
LAYER5
 62
7
  6
CENTER
 10
1414.684963
 20
888.948706
 11
1409.709186
 21
888.948706
  0
LINE
  8
LAYER6
 62
1
  6
CONTINUOUS
 10
1413.924036
 20
946.998706
 11
1410.174036
 21
946.998706
  0
LINE
  8
LAYER5
 62
7
  6
CENTER
 10
1412.049036
 20
946.998706
 11
1412.049036
 21
859.972019
  0
LINE
  8
LAYER6
 62
1
  6
CONTINUOUS
 10
1413.924036
 20
946.998706
 11
1413.924036
 21
860.898706
  0
LINE
  8
LAYER6
 62
1
  6
CONTINUOUS
 10
1410.774036
 20
921.498706
 11
1410.774036
 21
919.998706
  0
LINE
  8
LAYER6
 62
1
  6
CONTINUOUS
 10
1413.324036
 20
921.498706
 11
1413.324036
 21
919.998706
  0
LINE
  8
LAYER6
 62
1
  6
CONTINUOUS
 10
1413.324036
 20
893.748706
 11
1413.324036
 21
892.248706
  0
LINE
  8
LAYER6
 62
1
  6
CONTINUOUS
 10
1410.774036
 20
893.748706
 11
1410.774036
 21
892.248706
  0
LINE
  8
LAYER6
 62
1
  6
CONTINUOUS
 10
1413.324036
 20
865.998706
 11
1413.324036
 21
864.498705
  0
LINE
  8
LAYER6
 62
1
  6
CONTINUOUS
 10
1410.774036
 20
865.998706
 11
1410.774036
 21
864.498705
  0
LINE
  8
LAYER3
 62
3
  6
CONTINUOUS
 10
1410.624036
 20
946.998706
 11
1410.624036
 21
936.537552
  0
LINE
  8
LAYER3
 62
3
  6
CONTINUOUS
 10
1410.774036
 20
946.998706
 11
1410.774036
 21
936.537552
  0
LINE
  8
LAYER3
 62
3
  6
CONTINUOUS
 10
1413.324036
 20
946.998706
 11
1413.324036
 21
936.537552
  0
LINE
  8
LAYER3
 62
3
  6
CONTINUOUS
 10
1413.474036
 20
946.998706
 11
1413.474036
 21
936.537552
  0
LINE
  8
LAYER3
 62
3
  6
CONTINUOUS
 10
1410.624036
 20
916.398706
 11
1410.624036
 21
908.787552
  0
LINE
  8
LAYER3
 62
3
  6
CONTINUOUS
 10
1413.474036
 20
916.398706
 11
1413.474036
 21
908.787552
  0
LINE
  8
LAYER3
 62
3
  6
CONTINUOUS
 10
1413.324036
 20
916.398706
 11
1413.324036
 21
908.787552
  0
LINE
  8
LAYER6
 62
1
  6
CONTINUOUS
 10
1413.324036
 20
919.023706
 11
1413.324036
 21
916.398706
  0
LINE
  8
LAYER6
 62
1
  6
CONTINUOUS
 10
1412.049036
 20
919.473706
 11
1411.224036
 21
919.473706
  0
LINE
  8
LAYER6
 62
1
  6
CONTINUOUS
 10
1412.874036
 20
919.473706
 11
1412.049036
 21
919.473706
  0
LINE
  8
LAYER6
 62
1
  6
CONTINUOUS
 10
1413.924036
 20
916.398706
 11
1413.474036
 21
916.398706
  0
LINE
  8
LAYER6
 62
1
  6
CONTINUOUS
 10
1413.474036
 20
916.398706
 11
1413.324036
 21
916.398706
  0
LINE
  8
LAYER6
 62
1
  6
CONTINUOUS
 10
1410.624036
 20
916.398706
 11
1410.174036
 21
916.398706
  0
LINE
  8
LAYER6
 62
1
  6
CONTINUOUS
 10
1410.774036
 20
916.398706
 11
1410.624036
 21
916.398706
  0
LINE
  8
LAYER3
 62
3
  6
CONTINUOUS
 10
1410.774036
 20
916.398706
 11
1410.774036
 21
908.787552
  0
LINE
  8
LAYER6
 62
1
  6
CONTINUOUS
 10
1410.774036
 20
919.023706
 11
1410.774036
 21
916.398706
  0
LINE
  8
LAYER3
 62
3
  6
CONTINUOUS
 10
1411.561536
 20
883.998706
 11
1411.561536
 21
881.037552
  0
LINE
  8
LAYER3
 62
3
  6
CONTINUOUS
 10
1411.074036
 20
882.123706
 11
1411.074036
 21
881.373706
  0
LINE
  8
LAYER3
 62
3
  6
CONTINUOUS
 10
1413.024036
 20
882.123706
 11
1413.024036
 21
881.373706
  0
LINE
  8
LAYER3
 62
3
  6
CONTINUOUS
 10
1410.624036
 20
888.648706
 11
1410.624036
 21
881.037552
  0
LINE
  8
LAYER3
 62
3
  6
CONTINUOUS
 10
1412.536536
 20
883.998706
 11
1412.536536
 21
881.037552
  0
LINE
  8
LAYER3
 62
3
  6
CONTINUOUS
 10
1413.474036
 20
888.648706
 11
1413.474036
 21
881.037552
  0
LINE
  8
LAYER6
 62
1
  6
CONTINUOUS
 10
1412.874036
 20
891.723706
 11
1412.049036
 21
891.723706
  0
LINE
  8
LAYER6
 62
1
  6
CONTINUOUS
 10
1412.049036
 20
891.723706
 11
1411.224036
 21
891.723706
  0
LINE
  8
LAYER6
 62
1
  6
CONTINUOUS
 10
1410.774036
 20
891.273706
 11
1410.774036
 21
888.948706
  0
LINE
  8
LAYER6
 62
1
  6
CONTINUOUS
 10
1413.324036
 20
891.273706
 11
1413.324036
 21
888.948706
  0
LINE
  8
LAYER3
 62
3
  6
CONTINUOUS
 10
1413.324036
 20
888.648706
 11
1413.324036
 21
881.037552
  0
LINE
  8
LAYER6
 62
1
  6
CONTINUOUS
 10
1413.324036
 20
888.948706
 11
1413.324036
 21
888.648706
  0
LINE
  8
LAYER3
 62
3
  6
CONTINUOUS
 10
1410.774036
 20
888.648706
 11
1410.774036
 21
881.037552
  0
LINE
  8
LAYER6
 62
1
  6
CONTINUOUS
 10
1410.774036
 20
888.948706
 11
1410.774036
 21
888.648706
  0
LINE
  8
LAYER6
 62
1
  6
CONTINUOUS
 10
1410.174036
 20
946.998706
 11
1410.174036
 21
930.462552
  0
LINE
  8
LAYER6
 62
1
  6
CONTINUOUS
 10
1410.174036
 20
919.998706
 11
1410.174036
 21
902.712552
  0
LINE
  8
LAYER6
 62
1
  6
CONTINUOUS
 10
1410.174036
 20
892.248706
 11
1410.174036
 21
874.962552
  0
LINE
  8
LAYER6
 62
1
  6
CONTINUOUS
 10
1410.174036
 20
864.498705
 11
1410.174036
 21
860.898706
  0
ARC
  8
LAYER6
 62
1
  6
CONTINUOUS
 10
1412.874036
 20
863.523706
 40
0.450000
 50
0.000000
 51
90.000000
  0
ARC
  8
LAYER6
 62
1
  6
CONTINUOUS
 10
1411.224036
 20
863.523706
 40
0.450000
 50
90.000000
 51
180.000000
  0
CIRCLE
  8
LAYER6
 62
1
  6
CONTINUOUS
 10
1412.049036
 20
915.198706
 40
0.675000
  0
CIRCLE
  8
LAYER6
 62
1
  6
CONTINUOUS
 10
1412.049036
 20
915.198706
 40
1.275000
  0
CIRCLE
  8
LAYER6
 62
1
  6
CONTINUOUS
 10
1412.049036
 20
862.698706
 40
0.675000
  0
CIRCLE
  8
LAYER6
 62
1
  6
CONTINUOUS
 10
1412.049036
 20
862.698706
 40
1.275000
  0
CIRCLE
  8
LAYER6
 62
1
  6
CONTINUOUS
 10
1412.049036
 20
888.948706
 40
0.675000
  0
CIRCLE
  8
LAYER6
 62
1
  6
CONTINUOUS
 10
1412.049036
 20
888.948706
 40
1.275000
  0
ARC
  8
LAYER6
 62
1
  6
CONTINUOUS
 10
1411.224036
 20
919.023706
 40
0.450000
 50
90.000000
 51
180.000000
  0
ARC
  8
LAYER6
 62
1
  6
CONTINUOUS
 10
1412.874036
 20
919.023706
 40
0.450000
 50
0.000000
 51
90.000000
  0
ARC
  8
LAYER3
 62
3
  6
CONTINUOUS
 10
1412.049036
 20
883.998706
 40
0.487500
 50
0.000000
 51
180.000000
  0
ARC
  8
LAYER6
 62
1
  6
CONTINUOUS
 10
1412.874036
 20
891.273706
 40
0.450000
 50
0.000000
 51
90.000000
  0
ARC
  8
LAYER6
 62
1
  6
CONTINUOUS
 10
1411.224036
 20
891.273706
 40
0.450000
 50
90.000000
 51
180.000000
  0
TEXT
  8
LAYER11
 62
1
 10
1410.944027
 20
920.523655
 40
0.750000
 41
0.500000
  1
L1
 50
0.000005
 51
0.000000
 72
     0
 11
1410.944027
 21
920.523655
  0
TEXT
  8
LAYER11
 62
1
 10
1410.944027
 20
892.773655
 40
0.750000
 41
0.500000
  1
L2
 50
0.000005
 51
0.000000
 72
     0
 11
1410.944027
 21
892.773655
  0
TEXT
  8
LAYER11
 62
1
 10
1410.944027
 20
865.023655
 40
0.750000
 41
0.500000
  1
L3
 50
0.000005
 51
0.000000
 72
     0
 11
1410.944027
 21
865.023655
  0
TEXT
  8
LAYER11
 62
1
 10
1412.222427
 20
864.997176
 40
0.750000
 41
0.500000
  1
L1
 50
-0.000009
 51
0.000000
 72
     0
 11
1412.222427
 21
864.997176
  0
TEXT
  8
LAYER11
 62
1
 10
1412.253853
 20
892.781130
 40
0.750000
 41
0.500000
  1
L2
 50
-0.000009
 51
0.000000
 72
     0
 11
1412.253853
 21
892.781130
  0
TEXT
  8
LAYER11
 62
1
 10
1412.220813
 20
920.491957
 40
0.750000
 41
0.500000
  1
L3
 50
-0.000009
 51
0.000000
 72
     0
 11
1412.220813
 21
920.491957
  0
LINE
  8
LAYER3
 62
3
  6
CONTINUOUS
 10
1411.074036
 20
909.873706
 11
1411.074036
 21
909.123706
  0
LINE
  8
LAYER3
 62
3
  6
CONTINUOUS
 10
1413.024036
 20
909.873706
 11
1413.024036
 21
909.123706
  0
LINE
  8
LAYER3
 62
3
  6
CONTINUOUS
 10
1411.561536
 20
911.748706
 11
1411.561536
 21
908.787552
  0
LINE
  8
LAYER3
 62
3
  6
CONTINUOUS
 10
1412.536536
 20
911.748706
 11
1412.536536
 21
908.787552
  0
ARC
  8
LAYER3
 62
3
  6
CONTINUOUS
 10
1412.049036
 20
911.748706
 40
0.487500
 50
0.000000
 51
180.000000
  0
LINE
  8
LAYER3
 62
3
  6
CONTINUOUS
 10
1411.074036
 20
937.623706
 11
1411.074036
 21
936.873706
  0
LINE
  8
LAYER3
 62
3
  6
CONTINUOUS
 10
1413.024036
 20
937.623706
 11
1413.024036
 21
936.873706
  0
LINE
  8
LAYER3
 62
3
  6
CONTINUOUS
 10
1411.561536
 20
939.498706
 11
1411.561536
 21
936.537552
  0
LINE
  8
LAYER3
 62
3
  6
CONTINUOUS
 10
1412.536536
 20
939.498706
 11
1412.536536
 21
936.537552
  0
ARC
  8
LAYER3
 62
3
  6
CONTINUOUS
 10
1412.049036
 20
939.498706
 40
0.487500
 50
0.000000
 51
180.000000
  0
LINE
  8
LAYER5
 62
7
  6
CENTER
 10
1414.684963
 20
945.198706
 11
1409.709186
 21
945.198706
  0
CIRCLE
  8
LAYER6
 62
1
  6
CONTINUOUS
 10
1412.049036
 20
945.198706
 40
0.675000
  0
CIRCLE
  8
LAYER6
 62
1
  6
CONTINUOUS
 10
1412.049036
 20
945.198706
 40
1.275000
  0
LINE
  8
LAYER5
 62
7
  6
CENTER
 10
1410.694962
 20
933.462552
 11
1413.528109
 21
933.462552
  0
LINE
  8
LAYER6
 62
1
  6
CONTINUOUS
 10
1410.549036
 20
936.537552
 11
1413.549036
 21
936.537552
  0
LINE
  8
LAYER5
 62
7
  6
CENTER
 10
1412.049036
 20
936.936900
 11
1412.049036
 21
929.673830
  0
LINE
  8
LAYER6
 62
1
  6
CONTINUOUS
 10
1410.549036
 20
930.087552
 11
1413.549036
 21
930.087552
  0
LINE
  8
LAYER6
 62
1
  6
CONTINUOUS
 10
1410.174036
 20
930.462552
 11
1410.174036
 21
936.162552
  0
LINE
  8
LAYER6
 62
1
  6
CONTINUOUS
 10
1413.924036
 20
930.462552
 11
1413.924036
 21
936.162552
  0
LINE
  8
LAYER6
 62
1
  6
CONTINUOUS
 10
1413.924036
 20
919.998706
 11
1413.324036
 21
919.998706
  0
LINE
  8
LAYER4
 62
2
  6
DASHED
 10
1412.049036
 20
919.998706
 11
1410.774036
 21
919.998706
  0
LINE
  8
LAYER6
 62
1
  6
CONTINUOUS
 10
1413.324100
 20
919.998706
 11
1413.324036
 21
919.998706
  0
LINE
  8
LAYER4
 62
2
  6
DASHED
 10
1413.324036
 20
919.998706
 11
1412.049036
 21
919.998706
  0
LINE
  8
LAYER6
 62
1
  6
CONTINUOUS
 10
1410.774036
 20
919.998706
 11
1404.650290
 21
919.998706
  0
LINE
  8
LAYER5
 62
7
  6
CENTER
 10
1410.694962
 20
905.712552
 11
1413.528109
 21
905.712552
  0
LINE
  8
LAYER5
 62
7
  6
CENTER
 10
1412.049036
 20
909.186900
 11
1412.049036
 21
901.923830
  0
LINE
  8
LAYER6
 62
1
  6
CONTINUOUS
 10
1410.549036
 20
902.337552
 11
1413.549036
 21
902.337552
  0
LINE
  8
LAYER6
 62
1
  6
CONTINUOUS
 10
1410.174036
 20
902.712552
 11
1410.174036
 21
908.412552
  0
LINE
  8
LAYER6
 62
1
  6
CONTINUOUS
 10
1413.924036
 20
902.712552
 11
1413.924036
 21
908.412552
  0
LINE
  8
LAYER3
 62
3
  6
CONTINUOUS
 10
1410.549036
 20
908.787552
 11
1413.549036
 21
908.787552
  0
LINE
  8
LAYER5
 62
7
  6
CENTER
 10
1410.694962
 20
877.962552
 11
1413.528109
 21
877.962552
  0
LINE
  8
LAYER5
 62
7
  6
CENTER
 10
1412.049036
 20
881.436900
 11
1412.049036
 21
874.173830
  0
LINE
  8
LAYER6
 62
1
  6
CONTINUOUS
 10
1410.549036
 20
874.587552
 11
1413.549036
 21
874.587552
  0
LINE
  8
LAYER6
 62
1
  6
CONTINUOUS
 10
1410.174036
 20
874.962552
 11
1410.174036
 21
880.662552
  0
LINE
  8
LAYER6
 62
1
  6
CONTINUOUS
 10
1413.924036
 20
874.962552
 11
1413.924036
 21
880.662552
  0
LINE
  8
LAYER6
 62
1
  6
CONTINUOUS
 10
1410.549036
 20
881.037552
 11
1413.549036
 21
881.037552
  0
LINE
  8
LAYER6
 62
1
  6
CONTINUOUS
 10
1413.924036
 20
892.248706
 11
1413.324036
 21
892.248706
  0
LINE
  8
LAYER4
 62
2
  6
DASHED
 10
1412.049036
 20
892.248706
 11
1410.774036
 21
892.248706
  0
LINE
  8
LAYER4
 62
2
  6
DASHED
 10
1413.324036
 20
892.248706
 11
1412.049036
 21
892.248706
  0
LINE
  8
LAYER6
 62
1
  6
CONTINUOUS
 10
1410.774036
 20
892.248706
 11
1404.650290
 21
892.248706
  0
LINE
  8
LAYER6
 62
1
  6
CONTINUOUS
 10
1413.924036
 20
864.498705
 11
1413.324036
 21
864.498705
  0
LINE
  8
LAYER4
 62
2
  6
DASHED
 10
1412.049036
 20
864.498705
 11
1410.774036
 21
864.498705
  0
LINE
  8
LAYER4
 62
2
  6
DASHED
 10
1413.324036
 20
864.498705
 11
1412.049036
 21
864.498705
  0
LINE
  8
LAYER6
 62
1
  6
CONTINUOUS
 10
1410.774036
 20
864.498705
 11
1405.984857
 21
864.498705
  0
LINE
  8
LAYER8
 62
4
  6
CONTINUOUS
 10
1410.174036
 20
946.998706
 11
1410.174036
 21
952.802511
  0
LINE
  8
LAYER8
 62
4
  6
CONTINUOUS
 10
1406.859757
 20
952.312207
 11
1417.488399
 21
952.312207
  0
LINE
  8
LAYER8
 62
4
  6
CONTINUOUS
 10
1413.924036
 20
946.995552
 11
1413.924036
 21
952.795916
  0
LINE
  8
LAYER2
 62
4
  6
CONTINUOUS
 10
1413.983213
 20
952.312207
 11
1415.447963
 21
952.021207
  0
LINE
  8
LAYER3
 62
3
  6
CONTINUOUS
 10
1413.986213
 20
952.312207
 11
1415.447963
 21
952.021207
  0
LINE
  8
LAYER3
 62
3
  6
CONTINUOUS
 10
1413.986213
 20
952.312207
 11
1415.447963
 21
952.070707
  0
LINE
  8
LAYER3
 62
3
  6
CONTINUOUS
 10
1414.022963
 20
952.318957
 11
1415.447963
 21
952.129207
  0
LINE
  8
LAYER3
 62
3
  6
CONTINUOUS
 10
1414.022963
 20
952.318957
 11
1415.447963
 21
952.212457
  0
LINE
  8
LAYER3
 62
3
  6
CONTINUOUS
 10
1413.986213
 20
952.312207
 11
1415.447963
 21
952.264207
  0
LINE
  8
LAYER2
 62
4
  6
CONTINUOUS
 10
1413.983213
 20
952.312207
 11
1415.447963
 21
952.312207
  0
LINE
  8
LAYER2
 62
4
  6
CONTINUOUS
 10
1415.447963
 20
952.603207
 11
1415.447963
 21
952.021207
  0
LINE
  8
LAYER2
 62
4
  6
CONTINUOUS
 10
1413.983963
 20
952.312207
 11
1415.447963
 21
952.603207
  0
LINE
  8
LAYER3
 62
3
  6
CONTINUOUS
 10
1413.986213
 20
952.312207
 11
1415.447963
 21
952.603207
  0
LINE
  8
LAYER3
 62
3
  6
CONTINUOUS
 10
1413.986213
 20
952.312207
 11
1415.447963
 21
952.553707
  0
LINE
  8
LAYER3
 62
3
  6
CONTINUOUS
 10
1414.022963
 20
952.305457
 11
1415.447963
 21
952.495207
  0
LINE
  8
LAYER3
 62
3
  6
CONTINUOUS
 10
1414.022963
 20
952.305457
 11
1415.447963
 21
952.411957
  0
LINE
  8
LAYER3
 62
3
  6
CONTINUOUS
 10
1413.986213
 20
952.312207
 11
1415.447963
 21
952.360207
  0
LINE
  8
LAYER2
 62
4
  6
CONTINUOUS
 10
1408.711536
 20
952.603207
 11
1410.173286
 21
952.312207
  0
LINE
  8
LAYER2
 62
4
  6
CONTINUOUS
 10
1408.709286
 20
952.021207
 11
1410.174036
 21
952.312207
  0
LINE
  8
LAYER3
 62
3
  6
CONTINUOUS
 10
1410.171036
 20
952.312207
 11
1408.709286
 21
952.021207
  0
LINE
  8
LAYER3
 62
3
  6
CONTINUOUS
 10
1410.171036
 20
952.312207
 11
1408.709286
 21
952.070707
  0
LINE
  8
LAYER3
 62
3
  6
CONTINUOUS
 10
1410.134286
 20
952.318957
 11
1408.709286
 21
952.129207
  0
LINE
  8
LAYER3
 62
3
  6
CONTINUOUS
 10
1410.134286
 20
952.318957
 11
1408.709286
 21
952.212457
  0
LINE
  8
LAYER3
 62
3
  6
CONTINUOUS
 10
1410.171036
 20
952.312207
 11
1408.709286
 21
952.264207
  0
LINE
  8
LAYER2
 62
4
  6
CONTINUOUS
 10
1408.709286
 20
952.312207
 11
1410.174036
 21
952.312207
  0
LINE
  8
LAYER2
 62
4
  6
CONTINUOUS
 10
1408.709286
 20
952.603207
 11
1408.709286
 21
952.021207
  0
LINE
  8
LAYER2
 62
4
  6
CONTINUOUS
 10
1408.709286
 20
952.603207
 11
1410.171786
 21
952.312207
  0
LINE
  8
LAYER3
 62
3
  6
CONTINUOUS
 10
1410.171036
 20
952.312207
 11
1408.709286
 21
952.603207
  0
LINE
  8
LAYER3
 62
3
  6
CONTINUOUS
 10
1410.171036
 20
952.312207
 11
1408.709286
 21
952.553707
  0
LINE
  8
LAYER3
 62
3
  6
CONTINUOUS
 10
1410.134286
 20
952.305457
 11
1408.709286
 21
952.495207
  0
LINE
  8
LAYER3
 62
3
  6
CONTINUOUS
 10
1410.134286
 20
952.305457
 11
1408.709286
 21
952.411957
  0
LINE
  8
LAYER3
 62
3
  6
CONTINUOUS
 10
1410.171036
 20
952.312207
 11
1408.709286
 21
952.360207
  0
TEXT
  8
LAYER8
 62
4
 10
1411.146986
 20
952.743235
 40
1.125000
 41
1.000000
  1
25
 50
0.000000
 51
0.261799
 72
     0
 11
1411.146986
 21
952.743235
  0
LINE
  8
LAYER8
 62
4
  6
CONTINUOUS
 10
1407.020619
 20
1062.444692
 11
1411.361915
 21
1062.444692
  0
LINE
  8
LAYER8
 62
4
  6
CONTINUOUS
 10
1406.981512
 20
1032.444692
 11
1411.511915
 21
1032.444692
  0
LINE
  8
LAYER3
 62
4
  6
CONTINUOUS
 10
1407.482915
 20
1062.444692
 11
1407.482915
 21
1032.444692
  0
LINE
  8
LAYER3
 62
3
  6
CONTINUOUS
 10
1407.489665
 20
1062.407192
 11
1407.299915
 21
1060.982192
  0
LINE
  8
LAYER3
 62
3
  6
CONTINUOUS
 10
1407.489665
 20
1062.407192
 11
1407.383165
 21
1060.982192
  0
LINE
  8
LAYER3
 62
3
  6
CONTINUOUS
 10
1407.476165
 20
1062.407192
 11
1407.665915
 21
1060.982192
  0
LINE
  8
LAYER3
 62
3
  6
CONTINUOUS
 10
1407.476165
 20
1062.407192
 11
1407.582665
 21
1060.982192
  0
LINE
  8
LAYER3
 62
3
  6
CONTINUOUS
 10
1407.496415
 20
1032.407942
 11
1407.205415
 21
1033.869692
  0
LINE
  8
LAYER3
 62
3
  6
CONTINUOUS
 10
1407.496415
 20
1032.407942
 11
1407.254915
 21
1033.869692
  0
LINE
  8
LAYER3
 62
3
  6
CONTINUOUS
 10
1407.503165
 20
1032.444692
 11
1407.313415
 21
1033.869692
  0
LINE
  8
LAYER3
 62
3
  6
CONTINUOUS
 10
1407.503165
 20
1032.444692
 11
1407.396665
 21
1033.869692
  0
LINE
  8
LAYER3
 62
3
  6
CONTINUOUS
 10
1407.496415
 20
1032.407942
 11
1407.448415
 21
1033.869692
  0
LINE
  8
LAYER3
 62
3
  6
CONTINUOUS
 10
1407.496415
 20
1032.407942
 11
1407.787415
 21
1033.869692
  0
LINE
  8
LAYER3
 62
3
  6
CONTINUOUS
 10
1407.496415
 20
1032.407942
 11
1407.737915
 21
1033.869692
  0
LINE
  8
LAYER3
 62
3
  6
CONTINUOUS
 10
1407.489665
 20
1032.444692
 11
1407.679415
 21
1033.869692
  0
LINE
  8
LAYER3
 62
3
  6
CONTINUOUS
 10
1407.489665
 20
1032.444692
 11
1407.596165
 21
1033.869692
  0
LINE
  8
LAYER3
 62
3
  6
CONTINUOUS
 10
1407.496415
 20
1032.407942
 11
1407.544415
 21
1033.869692
  0
LINE
  8
LAYER3
 62
3
  6
CONTINUOUS
 10
1407.482915
 20
1062.443942
 11
1407.191915
 21
1060.982192
  0
LINE
  8
LAYER3
 62
3
  6
CONTINUOUS
 10
1407.482915
 20
1062.443942
 11
1407.241415
 21
1060.982192
  0
LINE
  8
LAYER3
 62
3
  6
CONTINUOUS
 10
1407.489665
 20
1062.407192
 11
1407.299915
 21
1060.982192
  0
LINE
  8
LAYER3
 62
3
  6
CONTINUOUS
 10
1407.489665
 20
1062.407192
 11
1407.383165
 21
1060.982192
  0
LINE
  8
LAYER3
 62
3
  6
CONTINUOUS
 10
1407.476165
 20
1062.407192
 11
1407.665915
 21
1060.982192
  0
LINE
  8
LAYER3
 62
3
  6
CONTINUOUS
 10
1407.476165
 20
1062.407192
 11
1407.582665
 21
1060.982192
  0
LINE
  8
LAYER3
 62
3
  6
CONTINUOUS
 10
1407.482915
 20
1062.443942
 11
1407.530915
 21
1060.982192
  0
LINE
  8
LAYER3
 62
3
  6
CONTINUOUS
 10
1407.482915
 20
1062.443942
 11
1407.773915
 21
1060.982192
  0
TEXT
  8
LAYER8
 62
4
 10
1407.051887
 20
1047.007775
 40
1.125000
 41
1.000000
  1
200
 50
90.000003
 51
0.261799
 72
     0
 11
1407.051887
 21
1047.007775
  0
LINE
  8
LAYER8
 62
4
  6
CONTINUOUS
 10
1406.981512
 20
1006.194692
 11
1411.511915
 21
1006.194692
  0
LINE
  8
LAYER3
 62
4
  6
CONTINUOUS
 10
1407.482915
 20
1032.444692
 11
1407.482915
 21
1006.194692
  0
LINE
  8
LAYER3
 62
3
  6
CONTINUOUS
 10
1407.489665
 20
1032.407192
 11
1407.299915
 21
1030.982192
  0
LINE
  8
LAYER3
 62
3
  6
CONTINUOUS
 10
1407.489665
 20
1032.407192
 11
1407.383165
 21
1030.982192
  0
LINE
  8
LAYER3
 62
3
  6
CONTINUOUS
 10
1407.476165
 20
1032.407192
 11
1407.665915
 21
1030.982192
  0
LINE
  8
LAYER3
 62
3
  6
CONTINUOUS
 10
1407.476165
 20
1032.407192
 11
1407.582665
 21
1030.982192
  0
LINE
  8
LAYER3
 62
3
  6
CONTINUOUS
 10
1407.496415
 20
1006.157942
 11
1407.205415
 21
1007.619692
  0
LINE
  8
LAYER3
 62
3
  6
CONTINUOUS
 10
1407.496415
 20
1006.157942
 11
1407.254915
 21
1007.619692
  0
LINE
  8
LAYER3
 62
3
  6
CONTINUOUS
 10
1407.503165
 20
1006.194692
 11
1407.313415
 21
1007.619692
  0
LINE
  8
LAYER3
 62
3
  6
CONTINUOUS
 10
1407.503165
 20
1006.194692
 11
1407.396665
 21
1007.619692
  0
LINE
  8
LAYER3
 62
3
  6
CONTINUOUS
 10
1407.496415
 20
1006.157942
 11
1407.448415
 21
1007.619692
  0
LINE
  8
LAYER3
 62
3
  6
CONTINUOUS
 10
1407.496415
 20
1006.157942
 11
1407.787415
 21
1007.619692
  0
LINE
  8
LAYER3
 62
3
  6
CONTINUOUS
 10
1407.496415
 20
1006.157942
 11
1407.737915
 21
1007.619692
  0
LINE
  8
LAYER3
 62
3
  6
CONTINUOUS
 10
1407.489665
 20
1006.194692
 11
1407.679415
 21
1007.619692
  0
LINE
  8
LAYER3
 62
3
  6
CONTINUOUS
 10
1407.489665
 20
1006.194692
 11
1407.596165
 21
1007.619692
  0
LINE
  8
LAYER3
 62
3
  6
CONTINUOUS
 10
1407.496415
 20
1006.157942
 11
1407.544415
 21
1007.619692
  0
LINE
  8
LAYER3
 62
3
  6
CONTINUOUS
 10
1407.482915
 20
1032.443942
 11
1407.191915
 21
1030.982192
  0
LINE
  8
LAYER3
 62
3
  6
CONTINUOUS
 10
1407.482915
 20
1032.443942
 11
1407.241415
 21
1030.982192
  0
LINE
  8
LAYER3
 62
3
  6
CONTINUOUS
 10
1407.489665
 20
1032.407192
 11
1407.299915
 21
1030.982192
  0
LINE
  8
LAYER3
 62
3
  6
CONTINUOUS
 10
1407.489665
 20
1032.407192
 11
1407.383165
 21
1030.982192
  0
LINE
  8
LAYER3
 62
3
  6
CONTINUOUS
 10
1407.476165
 20
1032.407192
 11
1407.665915
 21
1030.982192
  0
LINE
  8
LAYER3
 62
3
  6
CONTINUOUS
 10
1407.476165
 20
1032.407192
 11
1407.582665
 21
1030.982192
  0
LINE
  8
LAYER3
 62
3
  6
CONTINUOUS
 10
1407.482915
 20
1032.443942
 11
1407.530915
 21
1030.982192
  0
LINE
  8
LAYER3
 62
3
  6
CONTINUOUS
 10
1407.482915
 20
1032.443942
 11
1407.773915
 21
1030.982192
  0
TEXT
  8
LAYER8
 62
4
 10
1407.051887
 20
1017.007775
 40
1.125000
 41
1.000000
  1
175
 50
90.000003
 51
0.261799
 72
     0
 11
1407.051887
 21
1017.007775
  0
LINE
  8
LAYER8
 62
4
  6
CONTINUOUS
 10
1406.981512
 20
979.944692
 11
1411.511915
 21
979.944692
  0
LINE
  8
LAYER3
 62
4
  6
CONTINUOUS
 10
1407.482915
 20
1006.194692
 11
1407.482915
 21
979.944692
  0
LINE
  8
LAYER3
 62
3
  6
CONTINUOUS
 10
1407.489665
 20
1006.157192
 11
1407.299915
 21
1004.732192
  0
LINE
  8
LAYER3
 62
3
  6
CONTINUOUS
 10
1407.489665
 20
1006.157192
 11
1407.383165
 21
1004.732192
  0
LINE
  8
LAYER3
 62
3
  6
CONTINUOUS
 10
1407.476165
 20
1006.157192
 11
1407.665915
 21
1004.732192
  0
LINE
  8
LAYER3
 62
3
  6
CONTINUOUS
 10
1407.476165
 20
1006.157192
 11
1407.582665
 21
1004.732192
  0
LINE
  8
LAYER3
 62
3
  6
CONTINUOUS
 10
1407.496415
 20
979.907942
 11
1407.205415
 21
981.369692
  0
LINE
  8
LAYER3
 62
3
  6
CONTINUOUS
 10
1407.496415
 20
979.907942
 11
1407.254915
 21
981.369692
  0
LINE
  8
LAYER3
 62
3
  6
CONTINUOUS
 10
1407.503165
 20
979.944692
 11
1407.313415
 21
981.369692
  0
LINE
  8
LAYER3
 62
3
  6
CONTINUOUS
 10
1407.503165
 20
979.944692
 11
1407.396665
 21
981.369692
  0
LINE
  8
LAYER3
 62
3
  6
CONTINUOUS
 10
1407.496415
 20
979.907942
 11
1407.448415
 21
981.369692
  0
LINE
  8
LAYER3
 62
3
  6
CONTINUOUS
 10
1407.496415
 20
979.907942
 11
1407.787415
 21
981.369692
  0
LINE
  8
LAYER3
 62
3
  6
CONTINUOUS
 10
1407.496415
 20
979.907942
 11
1407.737915
 21
981.369692
  0
LINE
  8
LAYER3
 62
3
  6
CONTINUOUS
 10
1407.489665
 20
979.944692
 11
1407.679415
 21
981.369692
  0
LINE
  8
LAYER3
 62
3
  6
CONTINUOUS
 10
1407.489665
 20
979.944692
 11
1407.596165
 21
981.369692
  0
LINE
  8
LAYER3
 62
3
  6
CONTINUOUS
 10
1407.496415
 20
979.907942
 11
1407.544415
 21
981.369692
  0
LINE
  8
LAYER3
 62
3
  6
CONTINUOUS
 10
1407.482915
 20
1006.193942
 11
1407.191915
 21
1004.732192
  0
LINE
  8
LAYER3
 62
3
  6
CONTINUOUS
 10
1407.482915
 20
1006.193942
 11
1407.241415
 21
1004.732192
  0
LINE
  8
LAYER3
 62
3
  6
CONTINUOUS
 10
1407.489665
 20
1006.157192
 11
1407.299915
 21
1004.732192
  0
LINE
  8
LAYER3
 62
3
  6
CONTINUOUS
 10
1407.489665
 20
1006.157192
 11
1407.383165
 21
1004.732192
  0
LINE
  8
LAYER3
 62
3
  6
CONTINUOUS
 10
1407.476165
 20
1006.157192
 11
1407.665915
 21
1004.732192
  0
LINE
  8
LAYER3
 62
3
  6
CONTINUOUS
 10
1407.476165
 20
1006.157192
 11
1407.582665
 21
1004.732192
  0
LINE
  8
LAYER3
 62
3
  6
CONTINUOUS
 10
1407.482915
 20
1006.193942
 11
1407.530915
 21
1004.732192
  0
LINE
  8
LAYER3
 62
3
  6
CONTINUOUS
 10
1407.482915
 20
1006.193942
 11
1407.773915
 21
1004.732192
  0
TEXT
  8
LAYER8
 62
4
 10
1407.051887
 20
990.757775
 40
1.125000
 41
1.000000
  1
175
 50
90.000003
 51
0.261799
 72
     0
 11
1407.051887
 21
990.757775
  0
LINE
  8
LAYER8
 62
4
  6
CONTINUOUS
 10
1403.203319
 20
978.144692
 11
1412.274036
 21
978.144692
  0
LINE
  8
LAYER3
 62
4
  6
CONTINUOUS
 10
1403.447897
 20
1064.244692
 11
1403.447897
 21
978.141865
  0
LINE
  8
LAYER3
 62
3
  6
CONTINUOUS
 10
1403.454647
 20
1064.207192
 11
1403.264897
 21
1062.782192
  0
LINE
  8
LAYER3
 62
3
  6
CONTINUOUS
 10
1403.454647
 20
1064.207192
 11
1403.348147
 21
1062.782192
  0
LINE
  8
LAYER3
 62
3
  6
CONTINUOUS
 10
1403.441147
 20
1064.207192
 11
1403.630897
 21
1062.782192
  0
LINE
  8
LAYER3
 62
3
  6
CONTINUOUS
 10
1403.441147
 20
1064.207192
 11
1403.547647
 21
1062.782192
  0
LINE
  8
LAYER3
 62
3
  6
CONTINUOUS
 10
1403.461397
 20
978.105115
 11
1403.170397
 21
979.566865
  0
LINE
  8
LAYER3
 62
3
  6
CONTINUOUS
 10
1403.461397
 20
978.105115
 11
1403.219897
 21
979.566865
  0
LINE
  8
LAYER3
 62
3
  6
CONTINUOUS
 10
1403.468147
 20
978.141865
 11
1403.278397
 21
979.566865
  0
LINE
  8
LAYER3
 62
3
  6
CONTINUOUS
 10
1403.468147
 20
978.141865
 11
1403.361647
 21
979.566865
  0
LINE
  8
LAYER3
 62
3
  6
CONTINUOUS
 10
1403.461397
 20
978.105115
 11
1403.413397
 21
979.566865
  0
LINE
  8
LAYER3
 62
3
  6
CONTINUOUS
 10
1403.461397
 20
978.105115
 11
1403.752397
 21
979.566865
  0
LINE
  8
LAYER3
 62
3
  6
CONTINUOUS
 10
1403.461397
 20
978.105115
 11
1403.702897
 21
979.566865
  0
LINE
  8
LAYER3
 62
3
  6
CONTINUOUS
 10
1403.454647
 20
978.141865
 11
1403.644397
 21
979.566865
  0
LINE
  8
LAYER3
 62
3
  6
CONTINUOUS
 10
1403.454647
 20
978.141865
 11
1403.561147
 21
979.566865
  0
LINE
  8
LAYER3
 62
3
  6
CONTINUOUS
 10
1403.461397
 20
978.105115
 11
1403.509397
 21
979.566865
  0
LINE
  8
LAYER3
 62
3
  6
CONTINUOUS
 10
1403.447897
 20
1064.243942
 11
1403.156897
 21
1062.782192
  0
LINE
  8
LAYER3
 62
3
  6
CONTINUOUS
 10
1403.447897
 20
1064.243942
 11
1403.206397
 21
1062.782192
  0
LINE
  8
LAYER3
 62
3
  6
CONTINUOUS
 10
1403.454647
 20
1064.207192
 11
1403.264897
 21
1062.782192
  0
LINE
  8
LAYER3
 62
3
  6
CONTINUOUS
 10
1403.454647
 20
1064.207192
 11
1403.348147
 21
1062.782192
  0
LINE
  8
LAYER3
 62
3
  6
CONTINUOUS
 10
1403.441147
 20
1064.207192
 11
1403.630897
 21
1062.782192
  0
LINE
  8
LAYER3
 62
3
  6
CONTINUOUS
 10
1403.441147
 20
1064.207192
 11
1403.547647
 21
1062.782192
  0
LINE
  8
LAYER3
 62
3
  6
CONTINUOUS
 10
1403.447897
 20
1064.243942
 11
1403.495897
 21
1062.782192
  0
LINE
  8
LAYER3
 62
3
  6
CONTINUOUS
 10
1403.447897
 20
1064.243942
 11
1403.738897
 21
1062.782192
  0
TEXT
  8
LAYER8
 62
4
 10
1403.016870
 20
1017.007775
 40
1.125000
 41
1.000000
  1
573
 50
90.000003
 51
0.261799
 72
     0
 11
1403.016870
 21
1017.007775
  0
LINE
  8
LAYER8
 62
4
  6
CONTINUOUS
 10
1403.203319
 20
1064.244692
 11
1412.274036
 21
1064.244692
  0
LINE
  8
LAYER8
 62
4
  6
CONTINUOUS
 10
1419.174036
 20
1037.244692
 11
1428.236997
 21
1037.244692
  0
LINE
  8
LAYER8
 62
4
  6
CONTINUOUS
 10
1419.174036
 20
1009.494692
 11
1428.236997
 21
1009.494692
  0
LINE
  8
LAYER3
 62
4
  6
CONTINUOUS
 10
1427.686718
 20
1037.244692
 11
1427.686718
 21
1009.494692
  0
LINE
  8
LAYER3
 62
3
  6
CONTINUOUS
 10
1427.693468
 20
1037.207192
 11
1427.503718
 21
1035.782192
  0
LINE
  8
LAYER3
 62
3
  6
CONTINUOUS
 10
1427.693468
 20
1037.207192
 11
1427.586968
 21
1035.782192
  0
LINE
  8
LAYER3
 62
3
  6
CONTINUOUS
 10
1427.679968
 20
1037.207192
 11
1427.869718
 21
1035.782192
  0
LINE
  8
LAYER3
 62
3
  6
CONTINUOUS
 10
1427.679968
 20
1037.207192
 11
1427.786468
 21
1035.782192
  0
LINE
  8
LAYER3
 62
3
  6
CONTINUOUS
 10
1427.700218
 20
1009.457942
 11
1427.409218
 21
1010.919692
  0
LINE
  8
LAYER3
 62
3
  6
CONTINUOUS
 10
1427.700218
 20
1009.457942
 11
1427.458718
 21
1010.919692
  0
LINE
  8
LAYER3
 62
3
  6
CONTINUOUS
 10
1427.706968
 20
1009.494692
 11
1427.517218
 21
1010.919692
  0
LINE
  8
LAYER3
 62
3
  6
CONTINUOUS
 10
1427.706968
 20
1009.494692
 11
1427.600468
 21
1010.919692
  0
LINE
  8
LAYER3
 62
3
  6
CONTINUOUS
 10
1427.700218
 20
1009.457942
 11
1427.652218
 21
1010.919692
  0
LINE
  8
LAYER3
 62
3
  6
CONTINUOUS
 10
1427.700218
 20
1009.457942
 11
1427.991218
 21
1010.919692
  0
LINE
  8
LAYER3
 62
3
  6
CONTINUOUS
 10
1427.700218
 20
1009.457942
 11
1427.941718
 21
1010.919692
  0
LINE
  8
LAYER3
 62
3
  6
CONTINUOUS
 10
1427.693468
 20
1009.494692
 11
1427.883218
 21
1010.919692
  0
LINE
  8
LAYER3
 62
3
  6
CONTINUOUS
 10
1427.693468
 20
1009.494692
 11
1427.799968
 21
1010.919692
  0
LINE
  8
LAYER3
 62
3
  6
CONTINUOUS
 10
1427.700218
 20
1009.457942
 11
1427.748218
 21
1010.919692
  0
LINE
  8
LAYER3
 62
3
  6
CONTINUOUS
 10
1427.686718
 20
1037.243942
 11
1427.395718
 21
1035.782192
  0
LINE
  8
LAYER3
 62
3
  6
CONTINUOUS
 10
1427.686718
 20
1037.243942
 11
1427.445218
 21
1035.782192
  0
LINE
  8
LAYER3
 62
3
  6
CONTINUOUS
 10
1427.693468
 20
1037.207192
 11
1427.503718
 21
1035.782192
  0
LINE
  8
LAYER3
 62
3
  6
CONTINUOUS
 10
1427.693468
 20
1037.207192
 11
1427.586968
 21
1035.782192
  0
LINE
  8
LAYER3
 62
3
  6
CONTINUOUS
 10
1427.679968
 20
1037.207192
 11
1427.869718
 21
1035.782192
  0
LINE
  8
LAYER3
 62
3
  6
CONTINUOUS
 10
1427.679968
 20
1037.207192
 11
1427.786468
 21
1035.782192
  0
LINE
  8
LAYER3
 62
3
  6
CONTINUOUS
 10
1427.686718
 20
1037.243942
 11
1427.734718
 21
1035.782192
  0
LINE
  8
LAYER3
 62
3
  6
CONTINUOUS
 10
1427.686718
 20
1037.243942
 11
1427.977718
 21
1035.782192
  0
TEXT
  8
LAYER8
 62
4
 10
1427.255691
 20
1020.307775
 40
1.125000
 41
1.000000
  1
185
 50
90.000003
 51
0.261799
 72
     0
 11
1427.255691
 21
1020.307775
  0
LINE
  8
LAYER3
 62
3
  6
CONTINUOUS
 10
1427.700218
 20
1037.207942
 11
1427.409218
 21
1038.669692
  0
LINE
  8
LAYER3
 62
3
  6
CONTINUOUS
 10
1427.700218
 20
1037.207942
 11
1427.458718
 21
1038.669692
  0
LINE
  8
LAYER3
 62
3
  6
CONTINUOUS
 10
1427.706968
 20
1037.244692
 11
1427.517218
 21
1038.669692
  0
LINE
  8
LAYER3
 62
3
  6
CONTINUOUS
 10
1427.706968
 20
1037.244692
 11
1427.600468
 21
1038.669692
  0
LINE
  8
LAYER3
 62
3
  6
CONTINUOUS
 10
1427.700218
 20
1037.207942
 11
1427.652218
 21
1038.669692
  0
LINE
  8
LAYER3
 62
3
  6
CONTINUOUS
 10
1427.700218
 20
1037.207942
 11
1427.991218
 21
1038.669692
  0
LINE
  8
LAYER3
 62
3
  6
CONTINUOUS
 10
1427.700218
 20
1037.207942
 11
1427.941718
 21
1038.669692
  0
LINE
  8
LAYER3
 62
3
  6
CONTINUOUS
 10
1427.693468
 20
1037.244692
 11
1427.883218
 21
1038.669692
  0
LINE
  8
LAYER3
 62
3
  6
CONTINUOUS
 10
1427.693468
 20
1037.244692
 11
1427.799968
 21
1038.669692
  0
LINE
  8
LAYER3
 62
3
  6
CONTINUOUS
 10
1427.700218
 20
1037.207942
 11
1427.748218
 21
1038.669692
  0
LINE
  8
LAYER8
 62
4
  6
CONTINUOUS
 10
1419.174036
 20
981.744692
 11
1428.236997
 21
981.744692
  0
LINE
  8
LAYER3
 62
4
  6
CONTINUOUS
 10
1427.686718
 20
1009.494692
 11
1427.686718
 21
981.744692
  0
LINE
  8
LAYER3
 62
3
  6
CONTINUOUS
 10
1427.693468
 20
1009.457192
 11
1427.503718
 21
1008.032192
  0
LINE
  8
LAYER3
 62
3
  6
CONTINUOUS
 10
1427.693468
 20
1009.457192
 11
1427.586968
 21
1008.032192
  0
LINE
  8
LAYER3
 62
3
  6
CONTINUOUS
 10
1427.679968
 20
1009.457192
 11
1427.869718
 21
1008.032192
  0
LINE
  8
LAYER3
 62
3
  6
CONTINUOUS
 10
1427.679968
 20
1009.457192
 11
1427.786468
 21
1008.032192
  0
LINE
  8
LAYER3
 62
3
  6
CONTINUOUS
 10
1427.700218
 20
981.707942
 11
1427.409218
 21
983.169692
  0
LINE
  8
LAYER3
 62
3
  6
CONTINUOUS
 10
1427.700218
 20
981.707942
 11
1427.458718
 21
983.169692
  0
LINE
  8
LAYER3
 62
3
  6
CONTINUOUS
 10
1427.706968
 20
981.744692
 11
1427.517218
 21
983.169692
  0
LINE
  8
LAYER3
 62
3
  6
CONTINUOUS
 10
1427.706968
 20
981.744692
 11
1427.600468
 21
983.169692
  0
LINE
  8
LAYER3
 62
3
  6
CONTINUOUS
 10
1427.700218
 20
981.707942
 11
1427.652218
 21
983.169692
  0
LINE
  8
LAYER3
 62
3
  6
CONTINUOUS
 10
1427.700218
 20
981.707942
 11
1427.991218
 21
983.169692
  0
LINE
  8
LAYER3
 62
3
  6
CONTINUOUS
 10
1427.700218
 20
981.707942
 11
1427.941718
 21
983.169692
  0
LINE
  8
LAYER3
 62
3
  6
CONTINUOUS
 10
1427.693468
 20
981.744692
 11
1427.883218
 21
983.169692
  0
LINE
  8
LAYER3
 62
3
  6
CONTINUOUS
 10
1427.693468
 20
981.744692
 11
1427.799968
 21
983.169692
  0
LINE
  8
LAYER3
 62
3
  6
CONTINUOUS
 10
1427.700218
 20
981.707942
 11
1427.748218
 21
983.169692
  0
LINE
  8
LAYER3
 62
3
  6
CONTINUOUS
 10
1427.686718
 20
1009.493942
 11
1427.395718
 21
1008.032192
  0
LINE
  8
LAYER3
 62
3
  6
CONTINUOUS
 10
1427.686718
 20
1009.493942
 11
1427.445218
 21
1008.032192
  0
LINE
  8
LAYER3
 62
3
  6
CONTINUOUS
 10
1427.693468
 20
1009.457192
 11
1427.503718
 21
1008.032192
  0
LINE
  8
LAYER3
 62
3
  6
CONTINUOUS
 10
1427.693468
 20
1009.457192
 11
1427.586968
 21
1008.032192
  0
LINE
  8
LAYER3
 62
3
  6
CONTINUOUS
 10
1427.679968
 20
1009.457192
 11
1427.869718
 21
1008.032192
  0
LINE
  8
LAYER3
 62
3
  6
CONTINUOUS
 10
1427.679968
 20
1009.457192
 11
1427.786468
 21
1008.032192
  0
LINE
  8
LAYER3
 62
3
  6
CONTINUOUS
 10
1427.686718
 20
1009.493942
 11
1427.734718
 21
1008.032192
  0
LINE
  8
LAYER3
 62
3
  6
CONTINUOUS
 10
1427.686718
 20
1009.493942
 11
1427.977718
 21
1008.032192
  0
TEXT
  8
LAYER8
 62
4
 10
1427.255691
 20
992.557775
 40
1.125000
 41
1.000000
  1
185
 50
90.000003
 51
0.261799
 72
     0
 11
1427.255691
 21
992.557775
  0
LINE
  8
LAYER8
 62
4
  6
CONTINUOUS
 10
1408.734757
 20
1069.558194
 11
1420.188399
 21
1069.558194
  0
LINE
  8
LAYER8
 62
4
  6
CONTINUOUS
 10
1412.049036
 20
1064.019692
 11
1412.049036
 21
1073.563543
  0
LINE
  8
LAYER8
 62
4
  6
CONTINUOUS
 10
1416.624036
 20
1064.241538
 11
1416.624036
 21
1070.041903
  0
LINE
  8
LAYER2
 62
4
  6
CONTINUOUS
 10
1416.683213
 20
1069.558194
 11
1418.147963
 21
1069.267194
  0
LINE
  8
LAYER3
 62
3
  6
CONTINUOUS
 10
1416.686213
 20
1069.558194
 11
1418.147963
 21
1069.267194
  0
LINE
  8
LAYER3
 62
3
  6
CONTINUOUS
 10
1416.686213
 20
1069.558194
 11
1418.147963
 21
1069.316694
  0
LINE
  8
LAYER3
 62
3
  6
CONTINUOUS
 10
1416.722963
 20
1069.564944
 11
1418.147963
 21
1069.375194
  0
LINE
  8
LAYER3
 62
3
  6
CONTINUOUS
 10
1416.722963
 20
1069.564944
 11
1418.147963
 21
1069.458444
  0
LINE
  8
LAYER3
 62
3
  6
CONTINUOUS
 10
1416.686213
 20
1069.558194
 11
1418.147963
 21
1069.510194
  0
LINE
  8
LAYER2
 62
4
  6
CONTINUOUS
 10
1416.683213
 20
1069.558194
 11
1418.147963
 21
1069.558194
  0
LINE
  8
LAYER2
 62
4
  6
CONTINUOUS
 10
1418.147963
 20
1069.849194
 11
1418.147963
 21
1069.267194
  0
LINE
  8
LAYER2
 62
4
  6
CONTINUOUS
 10
1416.683963
 20
1069.558194
 11
1418.147963
 21
1069.849194
  0
LINE
  8
LAYER3
 62
3
  6
CONTINUOUS
 10
1416.686213
 20
1069.558194
 11
1418.147963
 21
1069.849194
  0
LINE
  8
LAYER3
 62
3
  6
CONTINUOUS
 10
1416.686213
 20
1069.558194
 11
1418.147963
 21
1069.799694
  0
LINE
  8
LAYER3
 62
3
  6
CONTINUOUS
 10
1416.722963
 20
1069.551444
 11
1418.147963
 21
1069.741194
  0
LINE
  8
LAYER3
 62
3
  6
CONTINUOUS
 10
1416.722963
 20
1069.551444
 11
1418.147963
 21
1069.657944
  0
LINE
  8
LAYER3
 62
3
  6
CONTINUOUS
 10
1416.686213
 20
1069.558194
 11
1418.147963
 21
1069.606194
  0
LINE
  8
LAYER2
 62
4
  6
CONTINUOUS
 10
1410.586536
 20
1069.849194
 11
1412.048286
 21
1069.558194
  0
LINE
  8
LAYER2
 62
4
  6
CONTINUOUS
 10
1410.584286
 20
1069.267194
 11
1412.049036
 21
1069.558194
  0
LINE
  8
LAYER3
 62
3
  6
CONTINUOUS
 10
1412.046036
 20
1069.558194
 11
1410.584286
 21
1069.267194
  0
LINE
  8
LAYER3
 62
3
  6
CONTINUOUS
 10
1412.046036
 20
1069.558194
 11
1410.584286
 21
1069.316694
  0
LINE
  8
LAYER3
 62
3
  6
CONTINUOUS
 10
1412.009286
 20
1069.564944
 11
1410.584286
 21
1069.375194
  0
LINE
  8
LAYER3
 62
3
  6
CONTINUOUS
 10
1412.009286
 20
1069.564944
 11
1410.584286
 21
1069.458444
  0
LINE
  8
LAYER3
 62
3
  6
CONTINUOUS
 10
1412.046036
 20
1069.558194
 11
1410.584286
 21
1069.510194
  0
LINE
  8
LAYER2
 62
4
  6
CONTINUOUS
 10
1410.584286
 20
1069.558194
 11
1412.049036
 21
1069.558194
  0
LINE
  8
LAYER2
 62
4
  6
CONTINUOUS
 10
1410.584286
 20
1069.849194
 11
1410.584286
 21
1069.267194
  0
LINE
  8
LAYER2
 62
4
  6
CONTINUOUS
 10
1410.584286
 20
1069.849194
 11
1412.046786
 21
1069.558194
  0
LINE
  8
LAYER3
 62
3
  6
CONTINUOUS
 10
1412.046036
 20
1069.558194
 11
1410.584286
 21
1069.849194
  0
LINE
  8
LAYER3
 62
3
  6
CONTINUOUS
 10
1412.046036
 20
1069.558194
 11
1410.584286
 21
1069.799694
  0
LINE
  8
LAYER3
 62
3
  6
CONTINUOUS
 10
1412.009286
 20
1069.551444
 11
1410.584286
 21
1069.741194
  0
LINE
  8
LAYER3
 62
3
  6
CONTINUOUS
 10
1412.009286
 20
1069.551444
 11
1410.584286
 21
1069.657944
  0
LINE
  8
LAYER3
 62
3
  6
CONTINUOUS
 10
1412.046036
 20
1069.558194
 11
1410.584286
 21
1069.606194
  0
TEXT
  8
LAYER8
 62
4
 10
1412.112506
 20
1069.989221
 40
1.125000
 41
1.000000
  1
30.5
 50
0.000000
 51
0.261799
 72
     0
 11
1412.112506
 21
1069.989221
  0
LINE
  8
LAYER8
 62
4
  6
CONTINUOUS
 10
1413.349507
 20
1012.947337
 11
1421.584406
 21
1012.947337
  0
LINE
  8
LAYER2
 62
4
  6
CONTINUOUS
 10
1418.121036
 20
1012.943164
 11
1419.585786
 21
1012.652164
  0
LINE
  8
LAYER3
 62
3
  6
CONTINUOUS
 10
1418.124036
 20
1012.943164
 11
1419.585786
 21
1012.652164
  0
LINE
  8
LAYER3
 62
3
  6
CONTINUOUS
 10
1418.124036
 20
1012.943164
 11
1419.585786
 21
1012.701664
  0
LINE
  8
LAYER3
 62
3
  6
CONTINUOUS
 10
1418.160786
 20
1012.949914
 11
1419.585786
 21
1012.760164
  0
LINE
  8
LAYER3
 62
3
  6
CONTINUOUS
 10
1418.160786
 20
1012.949914
 11
1419.585786
 21
1012.843414
  0
LINE
  8
LAYER3
 62
3
  6
CONTINUOUS
 10
1418.124036
 20
1012.943164
 11
1419.585786
 21
1012.895164
  0
LINE
  8
LAYER2
 62
4
  6
CONTINUOUS
 10
1418.121036
 20
1012.943164
 11
1419.585786
 21
1012.943164
  0
LINE
  8
LAYER2
 62
4
  6
CONTINUOUS
 10
1418.121786
 20
1012.943164
 11
1419.585786
 21
1013.234164
  0
LINE
  8
LAYER3
 62
3
  6
CONTINUOUS
 10
1418.124036
 20
1012.943164
 11
1419.585786
 21
1013.234164
  0
LINE
  8
LAYER3
 62
3
  6
CONTINUOUS
 10
1418.124036
 20
1012.943164
 11
1419.585786
 21
1013.184664
  0
LINE
  8
LAYER3
 62
3
  6
CONTINUOUS
 10
1418.160786
 20
1012.936414
 11
1419.585786
 21
1013.126164
  0
LINE
  8
LAYER3
 62
3
  6
CONTINUOUS
 10
1418.160786
 20
1012.936414
 11
1419.585786
 21
1013.042914
  0
LINE
  8
LAYER3
 62
3
  6
CONTINUOUS
 10
1418.124036
 20
1012.943164
 11
1419.585786
 21
1012.991164
  0
LINE
  8
LAYER2
 62
4
  6
CONTINUOUS
 10
1419.585786
 20
1013.234164
 11
1419.585786
 21
1012.652164
  0
LINE
  8
LAYER2
 62
4
  6
CONTINUOUS
 10
1415.201286
 20
1013.238337
 11
1416.663036
 21
1012.947337
  0
LINE
  8
LAYER2
 62
4
  6
CONTINUOUS
 10
1415.199036
 20
1012.656337
 11
1416.663786
 21
1012.947337
  0
LINE
  8
LAYER3
 62
3
  6
CONTINUOUS
 10
1416.660786
 20
1012.947337
 11
1415.199036
 21
1012.656337
  0
LINE
  8
LAYER3
 62
3
  6
CONTINUOUS
 10
1416.660786
 20
1012.947337
 11
1415.199036
 21
1012.705837
  0
LINE
  8
LAYER3
 62
3
  6
CONTINUOUS
 10
1416.624036
 20
1012.954087
 11
1415.199036
 21
1012.764337
  0
LINE
  8
LAYER3
 62
3
  6
CONTINUOUS
 10
1416.624036
 20
1012.954087
 11
1415.199036
 21
1012.847587
  0
LINE
  8
LAYER3
 62
3
  6
CONTINUOUS
 10
1416.660786
 20
1012.947337
 11
1415.199036
 21
1012.899337
  0
LINE
  8
LAYER2
 62
4
  6
CONTINUOUS
 10
1415.199036
 20
1012.947337
 11
1416.663786
 21
1012.947337
  0
LINE
  8
LAYER2
 62
4
  6
CONTINUOUS
 10
1415.199036
 20
1013.238337
 11
1415.199036
 21
1012.656337
  0
LINE
  8
LAYER2
 62
4
  6
CONTINUOUS
 10
1415.199036
 20
1013.238337
 11
1416.661536
 21
1012.947337
  0
LINE
  8
LAYER3
 62
3
  6
CONTINUOUS
 10
1416.660786
 20
1012.947337
 11
1415.199036
 21
1013.238337
  0
LINE
  8
LAYER3
 62
3
  6
CONTINUOUS
 10
1416.660786
 20
1012.947337
 11
1415.199036
 21
1013.188837
  0
LINE
  8
LAYER3
 62
3
  6
CONTINUOUS
 10
1416.624036
 20
1012.940587
 11
1415.199036
 21
1013.130337
  0
LINE
  8
LAYER3
 62
3
  6
CONTINUOUS
 10
1416.624036
 20
1012.940587
 11
1415.199036
 21
1013.047087
  0
LINE
  8
LAYER3
 62
3
  6
CONTINUOUS
 10
1416.660786
 20
1012.947337
 11
1415.199036
 21
1012.995337
  0
TEXT
  8
LAYER8
 62
4
 10
1412.884641
 20
1013.378364
 40
1.125000
 41
1.000000
  1
10
 50
0.000000
 51
0.261799
 72
     0
 11
1412.884641
 21
1013.378364
  0
LINE
  8
LAYER8
 62
4
  6
CONTINUOUS
 10
1419.534036
 20
1052.355384
 11
1419.534036
 21
1069.014151
  0
LINE
  8
LAYER8
 62
4
  6
CONTINUOUS
 10
1419.534036
 20
1069.941880
 11
1419.534036
 21
1073.563543
  0
LINE
  8
LAYER8
 62
4
  6
CONTINUOUS
 10
1412.049036
 20
1073.160942
 11
1419.534036
 21
1073.160942
  0
LINE
  8
LAYER2
 62
4
  6
CONTINUOUS
 10
1419.534036
 20
1073.160942
 11
1418.069286
 21
1073.451942
  0
LINE
  8
LAYER3
 62
3
  6
CONTINUOUS
 10
1419.531036
 20
1073.160942
 11
1418.069286
 21
1073.451942
  0
LINE
  8
LAYER3
 62
3
  6
CONTINUOUS
 10
1419.531036
 20
1073.160942
 11
1418.069286
 21
1073.402442
  0
LINE
  8
LAYER3
 62
3
  6
CONTINUOUS
 10
1419.494286
 20
1073.154192
 11
1418.069286
 21
1073.343942
  0
LINE
  8
LAYER3
 62
3
  6
CONTINUOUS
 10
1419.494286
 20
1073.154192
 11
1418.069286
 21
1073.260692
  0
LINE
  8
LAYER3
 62
3
  6
CONTINUOUS
 10
1419.531036
 20
1073.160942
 11
1418.069286
 21
1073.208942
  0
LINE
  8
LAYER2
 62
4
  6
CONTINUOUS
 10
1419.534036
 20
1073.160942
 11
1418.069286
 21
1073.160942
  0
LINE
  8
LAYER2
 62
4
  6
CONTINUOUS
 10
1418.069286
 20
1072.869942
 11
1418.069286
 21
1073.451942
  0
LINE
  8
LAYER2
 62
4
  6
CONTINUOUS
 10
1419.533286
 20
1073.160942
 11
1418.069286
 21
1072.869942
  0
LINE
  8
LAYER3
 62
3
  6
CONTINUOUS
 10
1419.531036
 20
1073.160942
 11
1418.069286
 21
1072.869942
  0
LINE
  8
LAYER3
 62
3
  6
CONTINUOUS
 10
1419.531036
 20
1073.160942
 11
1418.069286
 21
1072.919442
  0
LINE
  8
LAYER3
 62
3
  6
CONTINUOUS
 10
1419.494286
 20
1073.167692
 11
1418.069286
 21
1072.977942
  0
LINE
  8
LAYER3
 62
3
  6
CONTINUOUS
 10
1419.494286
 20
1073.167692
 11
1418.069286
 21
1073.061192
  0
LINE
  8
LAYER3
 62
3
  6
CONTINUOUS
 10
1419.531036
 20
1073.160942
 11
1418.069286
 21
1073.112942
  0
LINE
  8
LAYER2
 62
4
  6
CONTINUOUS
 10
1413.511536
 20
1072.869942
 11
1412.049786
 21
1073.160942
  0
LINE
  8
LAYER2
 62
4
  6
CONTINUOUS
 10
1413.513786
 20
1073.451942
 11
1412.049036
 21
1073.160942
  0
LINE
  8
LAYER3
 62
3
  6
CONTINUOUS
 10
1412.052036
 20
1073.160942
 11
1413.513786
 21
1073.451942
  0
LINE
  8
LAYER3
 62
3
  6
CONTINUOUS
 10
1412.052036
 20
1073.160942
 11
1413.513786
 21
1073.402442
  0
LINE
  8
LAYER3
 62
3
  6
CONTINUOUS
 10
1412.088786
 20
1073.154192
 11
1413.513786
 21
1073.343942
  0
LINE
  8
LAYER3
 62
3
  6
CONTINUOUS
 10
1412.088786
 20
1073.154192
 11
1413.513786
 21
1073.260692
  0
LINE
  8
LAYER3
 62
3
  6
CONTINUOUS
 10
1412.052036
 20
1073.160942
 11
1413.513786
 21
1073.208942
  0
LINE
  8
LAYER2
 62
4
  6
CONTINUOUS
 10
1413.513786
 20
1073.160942
 11
1412.049036
 21
1073.160942
  0
LINE
  8
LAYER2
 62
4
  6
CONTINUOUS
 10
1413.513786
 20
1072.869942
 11
1413.513786
 21
1073.451942
  0
LINE
  8
LAYER2
 62
4
  6
CONTINUOUS
 10
1413.513786
 20
1072.869942
 11
1412.051286
 21
1073.160942
  0
LINE
  8
LAYER3
 62
3
  6
CONTINUOUS
 10
1412.052036
 20
1073.160942
 11
1413.513786
 21
1072.869942
  0
LINE
  8
LAYER3
 62
3
  6
CONTINUOUS
 10
1412.052036
 20
1073.160942
 11
1413.513786
 21
1072.919442
  0
LINE
  8
LAYER3
 62
3
  6
CONTINUOUS
 10
1412.088786
 20
1073.167692
 11
1413.513786
 21
1072.977942
  0
LINE
  8
LAYER3
 62
3
  6
CONTINUOUS
 10
1412.088786
 20
1073.167692
 11
1413.513786
 21
1073.061192
  0
LINE
  8
LAYER3
 62
3
  6
CONTINUOUS
 10
1412.052036
 20
1073.160942
 11
1413.513786
 21
1073.112942
  0
TEXT
  8
LAYER8
 62
4
 10
1414.664823
 20
1073.617882
 40
1.125000
 41
1.000000
  1
50
 50
0.000000
 51
0.261799
 72
     0
 11
1414.664823
 21
1073.617882
  0
LINE
  8
LAYER8
 62
4
  6
CONTINUOUS
 10
1418.515529
 20
979.944692
 11
1424.809299
 21
979.944692
  0
LINE
  8
LAYER3
 62
4
  6
CONTINUOUS
 10
1424.182025
 20
985.410848
 11
1424.182025
 21
975.647892
  0
LINE
  8
LAYER3
 62
3
  6
CONTINUOUS
 10
1424.195525
 20
981.707942
 11
1423.904525
 21
983.169692
  0
LINE
  8
LAYER3
 62
3
  6
CONTINUOUS
 10
1424.195525
 20
981.707942
 11
1423.954025
 21
983.169692
  0
LINE
  8
LAYER3
 62
3
  6
CONTINUOUS
 10
1424.202275
 20
981.744692
 11
1424.012525
 21
983.169692
  0
LINE
  8
LAYER3
 62
3
  6
CONTINUOUS
 10
1424.202275
 20
981.744692
 11
1424.095775
 21
983.169692
  0
LINE
  8
LAYER3
 62
3
  6
CONTINUOUS
 10
1424.195525
 20
981.707942
 11
1424.147525
 21
983.169692
  0
LINE
  8
LAYER3
 62
3
  6
CONTINUOUS
 10
1424.195525
 20
981.707942
 11
1424.486525
 21
983.169692
  0
LINE
  8
LAYER3
 62
3
  6
CONTINUOUS
 10
1424.195525
 20
981.707942
 11
1424.437025
 21
983.169692
  0
LINE
  8
LAYER3
 62
3
  6
CONTINUOUS
 10
1424.188775
 20
981.744692
 11
1424.378525
 21
983.169692
  0
LINE
  8
LAYER3
 62
3
  6
CONTINUOUS
 10
1424.188775
 20
981.744692
 11
1424.295275
 21
983.169692
  0
LINE
  8
LAYER3
 62
3
  6
CONTINUOUS
 10
1424.195525
 20
981.707942
 11
1424.243525
 21
983.169692
  0
TEXT
  8
LAYER8
 62
4
 10
1423.750997
 20
975.670500
 40
1.125000
 41
1.000000
  1
12
 50
90.000003
 51
0.261799
 72
     0
 11
1423.750997
 21
975.670500
  0
LINE
  8
LAYER3
 62
3
  6
CONTINUOUS
 10
1424.182025
 20
979.944692
 11
1424.473025
 21
978.482942
  0
LINE
  8
LAYER3
 62
3
  6
CONTINUOUS
 10
1424.182025
 20
979.944692
 11
1424.423525
 21
978.482942
  0
LINE
  8
LAYER3
 62
3
  6
CONTINUOUS
 10
1424.175275
 20
979.907942
 11
1424.365025
 21
978.482942
  0
LINE
  8
LAYER3
 62
3
  6
CONTINUOUS
 10
1424.175275
 20
979.907942
 11
1424.281775
 21
978.482942
  0
LINE
  8
LAYER3
 62
3
  6
CONTINUOUS
 10
1424.182025
 20
979.944692
 11
1424.230025
 21
978.482942
  0
LINE
  8
LAYER3
 62
3
  6
CONTINUOUS
 10
1424.182025
 20
979.944692
 11
1423.891025
 21
978.482942
  0
LINE
  8
LAYER3
 62
3
  6
CONTINUOUS
 10
1424.182025
 20
979.944692
 11
1423.940525
 21
978.482942
  0
LINE
  8
LAYER3
 62
3
  6
CONTINUOUS
 10
1424.188775
 20
979.907942
 11
1423.999025
 21
978.482942
  0
LINE
  8
LAYER3
 62
3
  6
CONTINUOUS
 10
1424.188775
 20
979.907942
 11
1424.082275
 21
978.482942
  0
LINE
  8
LAYER3
 62
3
  6
CONTINUOUS
 10
1424.182025
 20
979.944692
 11
1424.134025
 21
978.482942
  0
LINE
  8
LAYER3
 62
7
  6
CONTINUOUS
 10
1453.228295
 20
832.599603
 11
1453.228295
 21
1129.599603
  0
LINE
  8
LAYER3
 62
7
  6
CONTINUOUS
 10
1453.228295
 20
1129.599603
 11
1243.228295
 21
1129.599603
  0
LINE
  8
LAYER3
 62
7
  6
CONTINUOUS
 10
1243.228295
 20
1129.599603
 11
1243.228295
 21
832.599603
  0
LINE
  8
LAYER3
 62
7
  6
CONTINUOUS
 10
1243.228295
 20
832.599603
 11
1453.228295
 21
832.599603
  0
ENDSEC
  0
EOF
