  0
SECTION
  2
HEADER
  9
$ACADVER
  1
AC1015
  9
$ACADMAINTVER
 70
     6
  9
$DWGCODEPAGE
  3
ANSI_1252
  9
$INSBASE
 10
0.0
 20
0.0
 30
0.0
  9
$EXTMIN
 10
0.0
 20
0.0
 30
0.0
  9
$EXTMAX
 10
297.0
 20
210.0
 30
0.0
  9
$LIMMIN
 10
0.0
 20
0.0
  9
$LIMMAX
 10
297.0
 20
210.0
  9
$ORTHOMODE
 70
     0
  9
$REGENMODE
 70
     1
  9
$FILLMODE
 70
     1
  9
$QTEXTMODE
 70
     0
  9
$MIRRTEXT
 70
     1
  9
$LTSCALE
 40
1.0
  9
$ATTMODE
 70
     1
  9
$TEXTSIZE
 40
4.2333333333
  9
$TRACEWID
 40
1.0
  9
$TEXTSTYLE
  7
Standard
  9
$CLAYER
  8
0
  9
$CELTYPE
  6
ByLayer
  9
$CECOLOR
 62
   256
  9
$CELTSCALE
 40
1.0
  9
$DISPSILH
 70
     0
  9
$DIMSCALE
 40
1.0
  9
$DIMASZ
 40
3.0819824219
  9
$DIMEXO
 40
1.0
  9
$DIMDLI
 40
3.75
  9
$DIMRND
 40
0.0
  9
$DIMDLE
 40
0.0
  9
$DIMEXE
 40
1.0
  9
$DIMTP
 40
0.0
  9
$DIMTM
 40
0.0
  9
$DIMTXT
 40
4.2333333333
  9
$DIMCEN
 40
2.5
  9
$DIMTSZ
 40
0.0
  9
$DIMTOL
 70
     0
  9
$DIMLIM
 70
     0
  9
$DIMTIH
 70
     1
  9
$DIMTOH
 70
     1
  9
$DIMSE1
 70
     0
  9
$DIMSE2
 70
     0
  9
$DIMTAD
 70
     1
  9
$DIMZIN
 70
     0
  9
$DIMBLK
  1

  9
$DIMASO
 70
     1
  9
$DIMSHO
 70
     1
  9
$DIMPOST
  1

  9
$DIMAPOST
  1

  9
$DIMALT
 70
     0
  9
$DIMALTD
 70
     3
  9
$DIMALTF
 40
0.0393700787
  9
$DIMLFAC
 40
2.0
  9
$DIMTOFL
 70
     1
  9
$DIMTVP
 40
0.0
  9
$DIMTIX
 70
     0
  9
$DIMSOXD
 70
     0
  9
$DIMSAH
 70
     0
  9
$DIMBLK1
  1

  9
$DIMBLK2
  1

  9
$DIMSTYLE
  2
ISO-25
  9
$DIMCLRD
 70
     0
  9
$DIMCLRE
 70
     0
  9
$DIMCLRT
 70
     0
  9
$DIMTFAC
 40
1.0
  9
$DIMGAP
 40
1.524
  9
$DIMJUST
 70
     0
  9
$DIMSD1
 70
     0
  9
$DIMSD2
 70
     0
  9
$DIMTOLJ
 70
     0
  9
$DIMTZIN
 70
     0
  9
$DIMALTZ
 70
     0
  9
$DIMALTTZ
 70
     0
  9
$DIMUPT
 70
     0
  9
$DIMDEC
 70
     2
  9
$DIMTDEC
 70
     2
  9
$DIMALTU
 70
     2
  9
$DIMALTTD
 70
     3
  9
$DIMTXSTY
  7
Standard
  9
$DIMAUNIT
 70
     0
  9
$DIMADEC
 70
     2
  9
$DIMALTRND
 40
0.0
  9
$DIMAZIN
 70
     0
  9
$DIMDSEP
 70
    44
  9
$DIMATFIT
 70
     3
  9
$DIMFRAC
 70
     0
  9
$DIMLDRBLK
  1

  9
$DIMLUNIT
 70
     2
  9
$DIMLWD
 70
    -2
  9
$DIMLWE
 70
    -2
  9
$DIMTMOVE
 70
     0
  9
$LUNITS
 70
     2
  9
$LUPREC
 70
     2
  9
$SKETCHINC
 40
1.0
  9
$FILLETRAD
 40
10.0
  9
$AUNITS
 70
     0
  9
$AUPREC
 70
     2
  9
$MENU
  1
.
  9
$ELEVATION
 40
0.0
  9
$PELEVATION
 40
0.0
  9
$THICKNESS
 40
0.0
  9
$LIMCHECK
 70
     0
  9
$CHAMFERA
 40
0.0
  9
$CHAMFERB
 40
0.0
  9
$CHAMFERC
 40
0.0
  9
$CHAMFERD
 40
0.0
  9
$SKPOLY
 70
     0
  9
$TDCREATE
 40
2456777.464050729
  9
$TDUCREATE
 40
2456777.380717396
  9
$TDUPDATE
 40
2456777.464051447
  9
$TDUUPDATE
 40
2456777.380718113
  9
$TDINDWG
 40
0.0000000116
  9
$TDUSRTIMER
 40
0.0000000116
  9
$USRTIMER
 70
     1
  9
$ANGBASE
 50
0.0
  9
$ANGDIR
 70
     0
  9
$PDMODE
 70
     0
  9
$PDSIZE
 40
-1.0
  9
$PLINEWID
 40
0.0
  9
$SPLFRAME
 70
     0
  9
$SPLINETYPE
 70
     6
  9
$SPLINESEGS
 70
     8
  9
$HANDSEED
  5
326
  9
$SURFTAB1
 70
     6
  9
$SURFTAB2
 70
     6
  9
$SURFTYPE
 70
     6
  9
$SURFU
 70
     6
  9
$SURFV
 70
     6
  9
$UCSBASE
  2

  9
$UCSNAME
  2

  9
$UCSORG
 10
0.0
 20
0.0
 30
0.0
  9
$UCSXDIR
 10
1.0
 20
0.0
 30
0.0
  9
$UCSYDIR
 10
0.0
 20
1.0
 30
0.0
  9
$UCSORTHOREF
  2

  9
$UCSORTHOVIEW
 70
     0
  9
$UCSORGTOP
 10
0.0
 20
0.0
 30
0.0
  9
$UCSORGBOTTOM
 10
0.0
 20
0.0
 30
0.0
  9
$UCSORGLEFT
 10
0.0
 20
0.0
 30
0.0
  9
$UCSORGRIGHT
 10
0.0
 20
0.0
 30
0.0
  9
$UCSORGFRONT
 10
0.0
 20
0.0
 30
0.0
  9
$UCSORGBACK
 10
0.0
 20
0.0
 30
0.0
  9
$PUCSBASE
  2

  9
$PUCSNAME
  2

  9
$PUCSORG
 10
0.0
 20
0.0
 30
0.0
  9
$PUCSXDIR
 10
1.0
 20
0.0
 30
0.0
  9
$PUCSYDIR
 10
0.0
 20
1.0
 30
0.0
  9
$PUCSORTHOREF
  2

  9
$PUCSORTHOVIEW
 70
     0
  9
$PUCSORGTOP
 10
0.0
 20
0.0
 30
0.0
  9
$PUCSORGBOTTOM
 10
0.0
 20
0.0
 30
0.0
  9
$PUCSORGLEFT
 10
0.0
 20
0.0
 30
0.0
  9
$PUCSORGRIGHT
 10
0.0
 20
0.0
 30
0.0
  9
$PUCSORGFRONT
 10
0.0
 20
0.0
 30
0.0
  9
$PUCSORGBACK
 10
0.0
 20
0.0
 30
0.0
  9
$USERI1
 70
     0
  9
$USERI2
 70
     0
  9
$USERI3
 70
     0
  9
$USERI4
 70
     0
  9
$USERI5
 70
     0
  9
$USERR1
 40
0.0
  9
$USERR2
 40
0.0
  9
$USERR3
 40
0.0
  9
$USERR4
 40
0.0
  9
$USERR5
 40
0.0
  9
$WORLDVIEW
 70
     1
  9
$SHADEDGE
 70
     3
  9
$SHADEDIF
 70
    70
  9
$TILEMODE
 70
     1
  9
$MAXACTVP
 70
    64
  9
$PINSBASE
 10
0.0
 20
0.0
 30
0.0
  9
$PLIMCHECK
 70
     0
  9
$PEXTMIN
 10
1.0000000000E+20
 20
1.0000000000E+20
 30
1.0000000000E+20
  9
$PEXTMAX
 10
-1.0000000000E+20
 20
-1.0000000000E+20
 30
-1.0000000000E+20
  9
$PLIMMIN
 10
0.0
 20
0.0
  9
$PLIMMAX
 10
420.0
 20
297.0
  9
$UNITMODE
 70
     0
  9
$VISRETAIN
 70
     1
  9
$PLINEGEN
 70
     0
  9
$PSLTSCALE
 70
     1
  9
$TREEDEPTH
 70
  3020
  9
$CMLSTYLE
  2
Standard
  9
$CMLJUST
 70
     0
  9
$CMLSCALE
 40
20.0
  9
$PROXYGRAPHICS
 70
     1
  9
$MEASUREMENT
 70
     1
  9
$CELWEIGHT
370
    -1
  9
$ENDCAPS
280
     0
  9
$JOINSTYLE
280
     0
  9
$LWDISPLAY
290
     1
  9
$INSUNITS
 70
     4
  9
$HYPERLINKBASE
  1

  9
$STYLESHEET
  1

  9
$XEDIT
290
     1
  9
$CEPSNTYPE
380
     0
  9
$PSTYLEMODE
290
     1
  9
$FINGERPRINTGUID
  2
{0337D38D-B1B6-4776-B38A-29D45178DC39}
  9
$VERSIONGUID
  2
{FAEB1C32-E019-11D5-929B-00C0DF256EC4}
  9
$EXTNAMES
290
     1
  9
$PSVPSCALE
 40
0.0
  9
$OLESTARTUP
290
     0
  0
ENDSEC
  0
SECTION
  2
CLASSES
  0
CLASS
  1
ACDBDICTIONARYWDFLT
  2
AcDbDictionaryWithDefault
  3
ObjectDBX Classes
 90
        0
280
     0
281
     0
  0
CLASS
  1
VISUALSTYLE
  2
AcDbVisualStyle
  3
ObjectDBX Classes
 90
     4095
280
     0
281
     0
  0
CLASS
  1
MATERIAL
  2
AcDbMaterial
  3
ObjectDBX Classes
 90
     1153
280
     0
281
     0
  0
CLASS
  1
SCALE
  2
AcDbScale
  3
ObjectDBX Classes
 90
     1153
280
     0
281
     0
  0
CLASS
  1
SUN
  2
AcDbSun
  3
SCENEOE
 90
     1153
280
     0
281
     0
  0
CLASS
  1
ACDBPLACEHOLDER
  2
AcDbPlaceHolder
  3
ObjectDBX Classes
 90
        0
280
     0
281
     0
  0
CLASS
  1
LAYOUT
  2
AcDbLayout
  3
ObjectDBX Classes
 90
        0
280
     0
281
     0
  0
ENDSEC
  0
SECTION
  2
TABLES
  0
TABLE
  2
VPORT
  5
8
330
0
100
AcDbSymbolTable
 70
     1
  0
VPORT
  5
29
330
8
100
AcDbSymbolTableRecord
100
AcDbViewportTableRecord
  2
*Active
 70
     0
 10
0.0
 20
0.0
 11
1.0
 21
1.0
 12
148.5
 22
105.0
 13
0.0
 23
0.0
 14
10.0
 24
10.0
 15
10.0
 25
10.0
 16
0.0
 26
0.0
 36
1.0
 17
0.0
 27
0.0
 37
0.0
 40
210.0
 41
1.4142857143
 42
50.0
 43
0.0
 44
0.0
 50
0.0
 51
0.0
 71
     0
 72
  2000
 73
     1
 74
     3
 75
     0
 76
     0
 77
     0
 78
     0
281
     0
 65
     1
110
0.0
120
0.0
130
0.0
111
1.0
121
0.0
131
0.0
112
0.0
122
1.0
132
0.0
 79
     0
146
0.0
  0
ENDTAB
  0
TABLE
  2
LTYPE
  5
5
330
0
100
AcDbSymbolTable
 70
     6
  0
LTYPE
  5
14
330
5
100
AcDbSymbolTableRecord
100
AcDbLinetypeTableRecord
  2
ByBlock
 70
     0
  3

 72
    65
 73
     0
 40
0.0
  0
LTYPE
  5
15
330
5
100
AcDbSymbolTableRecord
100
AcDbLinetypeTableRecord
  2
ByLayer
 70
     0
  3

 72
    65
 73
     0
 40
0.0
  0
LTYPE
  5
16
330
5
100
AcDbSymbolTableRecord
100
AcDbLinetypeTableRecord
  2
Continuous
 70
     0
  3
Solid line
 72
    65
 73
     0
 40
0.0
  0
LTYPE
  5
6A
330
5
100
AcDbSymbolTableRecord
100
AcDbLinetypeTableRecord
  2
HIDDEN
 70
     0
  3
Hidden __ __ __ __ __ __ __ __ __ __ __ __ __ __
 72
    65
 73
     2
 40
1.905
 49
1.27
 74
     0
 49
-0.635
 74
     0
  0
LTYPE
  5
6B
330
5
100
AcDbSymbolTableRecord
100
AcDbLinetypeTableRecord
  2
PHANTOM
 70
     0
  3
Phantom ______  __  __  ______  __  __  ______
 72
    65
 73
     6
 40
12.7
 49
6.35
 74
     0
 49
-1.27
 74
     0
 49
1.27
 74
     0
 49
-1.27
 74
     0
 49
1.27
 74
     0
 49
-1.27
 74
     0
  0
LTYPE
  5
6C
330
5
100
AcDbSymbolTableRecord
100
AcDbLinetypeTableRecord
  2
CENTER
 70
     0
  3
Center ____ _ ____ _ ____ _ ____ _ ____ _ ____
 72
    65
 73
     4
 40
10.16
 49
6.35
 74
     0
 49
-1.27
 74
     0
 49
1.27
 74
     0
 49
-1.27
 74
     0
  0
LTYPE
  5
6D
330
5
100
AcDbSymbolTableRecord
100
AcDbLinetypeTableRecord
  2
CENTERX2
 70
     0
  3
Center (2x) ________  __  ________  __  _____
 72
    65
 73
     4
 40
20.32
 49
12.7
 74
     0
 49
-2.54
 74
     0
 49
2.54
 74
     0
 49
-2.54
 74
     0
  0
LTYPE
  5
6E
330
5
100
AcDbSymbolTableRecord
100
AcDbLinetypeTableRecord
  2
DOT2
 70
     0
  3
Dot (.5x) ........................................
 72
    65
 73
     2
 40
0.635
 49
0.0
 74
     0
 49
-0.635
 74
     0
  0
ENDTAB
  0
TABLE
  2
LAYER
  5
2
330
0
100
AcDbSymbolTable
 70
     1
  0
LAYER
  5
10
330
2
100
AcDbSymbolTableRecord
100
AcDbLayerTableRecord
  2
0
 70
     0
 62
     7
  6
Continuous
370
    -3
390
F
  0
ENDTAB
  0
TABLE
  2
STYLE
  5
3
330
0
100
AcDbSymbolTable
 70
     3
  0
STYLE
  5
11
330
3
100
AcDbSymbolTableRecord
100
AcDbTextStyleTableRecord
  2
Standard
 70
     0
 40
0.0
 41
1.0
 50
0.0
 71
     0
 42
4.2333333333
  3
txt
  4

  0
STYLE
  5
B8
330
3
100
AcDbSymbolTableRecord
100
AcDbTextStyleTableRecord
  2
SLDTEXTSTYLE0
 70
     0
 40
0.0
 41
0.75
 50
0.0
 71
     0
 42
4.2333333333
  3
TXT
  4

  0
STYLE
  5
CB
330
3
100
AcDbSymbolTableRecord
100
AcDbTextStyleTableRecord
  2
SLDTEXTSTYLE1
 70
     0
 40
0.0
 41
0.605
 50
0.0
 71
     0
 42
4.2333333333
  3
TXT
  4

  0
ENDTAB
  0
TABLE
  2
VIEW
  5
6
330
0
100
AcDbSymbolTable
 70
     0
  0
ENDTAB
  0
TABLE
  2
UCS
  5
7
330
0
100
AcDbSymbolTable
 70
     0
  0
ENDTAB
  0
TABLE
  2
APPID
  5
9
330
0
100
AcDbSymbolTable
 70
     1
  0
APPID
  5
12
330
9
100
AcDbSymbolTableRecord
100
AcDbRegAppTableRecord
  2
ACAD
 70
     0
  0
ENDTAB
  0
TABLE
  2
DIMSTYLE
  5
A
330
0
100
AcDbSymbolTable
 70
     1
100
AcDbDimStyleTable
  0
DIMSTYLE
105
27
330
A
100
AcDbSymbolTableRecord
100
AcDbDimStyleTableRecord
  2
ISO-25
 70
     0
 41
2.5
 42
0.625
 43
3.75
 44
1.25
 73
     0
 74
     0
 77
     1
 78
     8
140
2.5
141
2.5
143
0.0393700787
147
0.625
171
     3
172
     1
178
     0
271
     2
272
     2
274
     3
278
    44
283
     0
284
     8
340
11
  0
ENDTAB
  0
TABLE
  2
BLOCK_RECORD
  5
1
330
0
100
AcDbSymbolTable
 70
     3
  0
BLOCK_RECORD
  5
1F
330
1
100
AcDbSymbolTableRecord
100
AcDbBlockTableRecord
  2
*Model_Space
340
22
  0
BLOCK_RECORD
  5
1B
330
1
100
AcDbSymbolTableRecord
100
AcDbBlockTableRecord
  2
*Paper_Space
340
1E
  0
BLOCK_RECORD
  5
23
330
1
100
AcDbSymbolTableRecord
100
AcDbBlockTableRecord
  2
*Paper_Space0
340
26
  0
BLOCK_RECORD
  5
C8
330
1
100
AcDbSymbolTableRecord
100
AcDbBlockTableRecord
  2
SW_NOTE_0
340
0
102
{BLKREFS
331
CF
102
}
  0
BLOCK_RECORD
  5
D1
330
1
100
AcDbSymbolTableRecord
100
AcDbBlockTableRecord
  2
SW_NOTE_1
340
0
102
{BLKREFS
331
D6
102
}
  0
ENDTAB
  0
ENDSEC
  0
SECTION
  2
BLOCKS
  0
BLOCK
  5
20
330
1F
100
AcDbEntity
  8
0
100
AcDbBlockBegin
  2
*Model_Space
 70
     0
 10
0.0
 20
0.0
 30
0.0
  3
*Model_Space
  1
*Model_Space
  0
ENDBLK
  5
21
330
1F
100
AcDbEntity
  8
0
100
AcDbBlockEnd
  0
BLOCK
  5
1C
330
1B
100
AcDbEntity
 67
     1
  8
0
100
AcDbBlockBegin
  2
*Paper_Space
 70
     0
 10
0.0
 20
0.0
 30
0.0
  3
*Paper_Space
  1
*Paper_Space
  0
ENDBLK
  5
1D
330
1B
100
AcDbEntity
 67
     1
  8
0
100
AcDbBlockEnd
  0
BLOCK
  5
24
330
23
100
AcDbEntity
  8
0
100
AcDbBlockBegin
  2
*Paper_Space0
 70
     0
 10
0.0
 20
0.0
 30
0.0
  3
*Paper_Space0
  1
*Paper_Space0
  0
ENDBLK
  5
25
330
23
100
AcDbEntity
  8
0
100
AcDbBlockEnd
  0
BLOCK
  5
C9
330
C8
100
AcDbEntity
  8
0
100
AcDbBlockBegin
  2
SW_NOTE_0
 70
     0
 10
0.0
 20
0.0
 30
0.0
  3
SW_NOTE_0
  1
SW_NOTE_0
  0
MTEXT
  5
CC
330
C8
100
AcDbEntity
  8
0
  6
Continuous
 62
     0
370
     0
100
AcDbMText
 10
0.0
 20
2.7285267159
 30
0.0
 40
2.1166666667
 41
0.0
 71
     1
 72
     1
  1
Weitergabe sowie Vervielfältigung dieser Zeichnung, Verwertung und Mitteilung ihres Inhalts ist nicht
  7
SLDTEXTSTYLE1
 73
     1
 44
1.0
  0
MTEXT
  5
CD
330
C8
100
AcDbEntity
  8
0
  6
Continuous
 62
     0
370
     0
100
AcDbMText
 10
0.0
 20
-0.0936954723
 30
0.0
 40
2.1166666667
 41
0.0
 71
     1
 72
     1
  1
gestattet, soweit nicht ausdrücklich zugestanden. Zuwiderhandlungen verpflichten zu Schadenersatz.
  7
SLDTEXTSTYLE1
 73
     1
 44
1.0
  0
MTEXT
  5
CE
330
C8
100
AcDbEntity
  8
0
  6
Continuous
 62
     0
370
     0
100
AcDbMText
 10
0.0
 20
-2.9159176604
 30
0.0
 40
2.1166666667
 41
0.0
 71
     1
 72
     1
  1
Alle Rechte für den Fall der Patenterteilung oder Gebrauchsmuster-Eintragung vorbehalten.
  7
SLDTEXTSTYLE1
 73
     1
 44
1.0
  0
ENDBLK
  5
CA
330
C8
100
AcDbEntity
  8
0
100
AcDbBlockEnd
  0
BLOCK
  5
D2
330
D1
100
AcDbEntity
  8
0
100
AcDbBlockBegin
  2
SW_NOTE_1
 70
     0
 10
0.0
 20
0.0
 30
0.0
  3
SW_NOTE_1
  1
SW_NOTE_1
  0
MTEXT
  5
D4
330
D1
100
AcDbEntity
  8
0
  6
Continuous
 62
     0
370
     0
100
AcDbMText
 10
0.0
 20
2.7285267159
 30
0.0
 40
2.1166666667
 41
0.0
 71
     1
 72
     1
  1
Für diese Zeichnung  behalten
  7
SLDTEXTSTYLE1
 73
     1
 44
1.0
  0
MTEXT
  5
D5
330
D1
100
AcDbEntity
  8
0
  6
Continuous
 62
     0
370
     0
100
AcDbMText
 10
0.0
 20
-0.0936954723
 30
0.0
 40
2.1166666667
 41
0.0
 71
     1
 72
     1
  1
wir uns alle Rechte vor.
  7
SLDTEXTSTYLE1
 73
     1
 44
1.0
  0
ENDBLK
  5
D3
330
D1
100
AcDbEntity
  8
0
100
AcDbBlockEnd
  0
ENDSEC
  0
SECTION
  2
ENTITIES
  0
HATCH
  5
6F
330
1F
100
AcDbEntity
  8
0
  6
Continuous
 62
     7
100
AcDbHatch
 10
0.0
 20
0.0
 30
0.0
210
0.0
220
0.0
230
1.0
  2
ANSI31
 70
     0
 71
     0
 91
        3
 92
        0
 93
       10
 72
     1
 10
157.9095498026045
 20
52.38654832642616
 11
156.7409412291091
 21
51.21793975293075
 72
     1
 10
156.7409412291091
 20
51.21793975293075
 11
145.8913405063491
 21
51.21793975293075
 72
     1
 10
145.8913405063491
 20
51.21793975293075
 11
145.8913405063491
 21
59.2033733528789
 72
     1
 10
145.8913405063491
 20
59.2033733528789
 11
152.2584156267936
 21
59.2033733528789
 72
     1
 10
152.2584156267936
 20
59.2033733528789
 11
152.6449991425665
 21
60.42154777137215
 72
     1
 10
152.6449991425665
 20
60.42154777137215
 11
153.2781009519537
 21
60.42154777137215
 72
     1
 10
153.2781009519537
 20
60.42154777137215
 11
152.8915174361809
 21
59.2033733528789
 72
     1
 10
152.8915174361809
 20
59.2033733528789
 11
156.7123707091165
 21
59.2033733528789
 72
     1
 10
156.7123707091165
 20
59.2033733528789
 11
157.9095498026045
 21
58.00619425939106
 72
     1
 10
157.9095498026045
 20
58.00619425939106
 11
157.9095498026045
 21
52.38654832642616
 97
        0
 92
        0
 93
       11
 72
     1
 10
156.4317655604748
 20
58.63545036409693
 11
152.7112890038985
 21
58.63545036409692
 72
     1
 10
152.7112890038985
 20
58.63545036409692
 11
151.6244423157493
 21
55.21065655290484
 72
     1
 10
151.6244423157493
 20
55.21065655290484
 11
152.8431987000403
 21
51.8270741690087
 72
     1
 10
152.8431987000403
 20
51.8270741690087
 11
156.5015475077631
 21
51.82707416900867
 72
     1
 10
156.5015475077631
 20
51.82707416900867
 11
157.3109602558606
 21
52.6364869171061
 72
     1
 10
157.3109602558606
 20
52.6364869171061
 11
157.3109602558606
 21
54.91970256753179
 72
     1
 10
157.3109602558606
 20
54.91970256753179
 11
156.1109602558604
 21
54.91970256753179
 72
     1
 10
156.1109602558604
 20
54.91970256753179
 11
156.1109602558605
 21
55.51970256753204
 72
     1
 10
156.1109602558605
 20
55.51970256753204
 11
157.3109602558613
 21
55.51970256753204
 72
     1
 10
157.3109602558613
 20
55.51970256753204
 11
157.3109602558613
 21
57.75625566871036
 72
     1
 10
157.3109602558613
 20
57.75625566871036
 11
156.4317655604748
 21
58.63545036409693
 97
        0
 92
        0
 93
        5
 72
     1
 10
150.991340506356
 20
55.21065655288599
 11
152.0781871945113
 21
58.63545036409693
 72
     1
 10
152.0781871945113
 20
58.63545036409693
 11
146.441302066077
 21
58.63545036409693
 72
     1
 10
146.441302066077
 20
58.63545036409693
 11
146.441302066077
 21
51.82707416900868
 72
     1
 10
146.441302066077
 20
51.82707416900868
 11
152.1902532982667
 21
51.82707416900868
 72
     1
 10
152.1902532982667
 20
51.82707416900868
 11
150.991340506356
 21
55.21065655288599
 97
        0
 75
     0
 76
     1
 52
90.0
 41
0.1
 77
     0
 78
     1
 53
135.0000000000002
 43
0.0
 44
0.0
 45
-0.2245064030267281
 46
-0.2245064030267296
 79
     0
 98
        1
 10
0.0
 20
0.0
  0
HATCH
  5
70
330
1F
100
AcDbEntity
  8
0
  6
Continuous
 62
     7
100
AcDbHatch
 10
0.0
 20
0.0
 30
0.0
210
0.0
220
0.0
230
1.0
  2
ANSI31
 70
     0
 71
     0
 91
        3
 92
        0
 93
       10
 72
     1
 10
157.9095498026045
 20
52.38654832642616
 11
156.7409412291091
 21
51.21793975293075
 72
     1
 10
156.7409412291091
 20
51.21793975293075
 11
145.8913405063491
 21
51.21793975293075
 72
     1
 10
145.8913405063491
 20
51.21793975293075
 11
145.8913405063491
 21
59.2033733528789
 72
     1
 10
145.8913405063491
 20
59.2033733528789
 11
152.2584156267936
 21
59.2033733528789
 72
     1
 10
152.2584156267936
 20
59.2033733528789
 11
152.6449991425665
 21
60.42154777137215
 72
     1
 10
152.6449991425665
 20
60.42154777137215
 11
153.2781009519537
 21
60.42154777137215
 72
     1
 10
153.2781009519537
 20
60.42154777137215
 11
152.8915174361809
 21
59.2033733528789
 72
     1
 10
152.8915174361809
 20
59.2033733528789
 11
156.7123707091165
 21
59.2033733528789
 72
     1
 10
156.7123707091165
 20
59.2033733528789
 11
157.9095498026045
 21
58.00619425939106
 72
     1
 10
157.9095498026045
 20
58.00619425939106
 11
157.9095498026045
 21
52.38654832642616
 97
        0
 92
        0
 93
       11
 72
     1
 10
156.4317655604748
 20
58.63545036409693
 11
152.7112890038985
 21
58.63545036409692
 72
     1
 10
152.7112890038985
 20
58.63545036409692
 11
151.6244423157493
 21
55.21065655290484
 72
     1
 10
151.6244423157493
 20
55.21065655290484
 11
152.8431987000403
 21
51.8270741690087
 72
     1
 10
152.8431987000403
 20
51.8270741690087
 11
156.5015475077631
 21
51.82707416900867
 72
     1
 10
156.5015475077631
 20
51.82707416900867
 11
157.3109602558606
 21
52.6364869171061
 72
     1
 10
157.3109602558606
 20
52.6364869171061
 11
157.3109602558606
 21
54.91970256753179
 72
     1
 10
157.3109602558606
 20
54.91970256753179
 11
156.1109602558604
 21
54.91970256753179
 72
     1
 10
156.1109602558604
 20
54.91970256753179
 11
156.1109602558605
 21
55.51970256753204
 72
     1
 10
156.1109602558605
 20
55.51970256753204
 11
157.3109602558613
 21
55.51970256753204
 72
     1
 10
157.3109602558613
 20
55.51970256753204
 11
157.3109602558613
 21
57.75625566871036
 72
     1
 10
157.3109602558613
 20
57.75625566871036
 11
156.4317655604748
 21
58.63545036409693
 97
        0
 92
        0
 93
        5
 72
     1
 10
150.991340506356
 20
55.21065655288599
 11
152.0781871945113
 21
58.63545036409693
 72
     1
 10
152.0781871945113
 20
58.63545036409693
 11
146.441302066077
 21
58.63545036409693
 72
     1
 10
146.441302066077
 20
58.63545036409693
 11
146.441302066077
 21
51.82707416900868
 72
     1
 10
146.441302066077
 20
51.82707416900868
 11
152.1902532982667
 21
51.82707416900868
 72
     1
 10
152.1902532982667
 20
51.82707416900868
 11
150.991340506356
 21
55.21065655288599
 97
        0
 75
     0
 76
     1
 52
0.0
 41
0.1
 77
     0
 78
     1
 53
45.0
 43
0.0
 44
0.0
 45
-0.2245064030267288
 46
0.2245064030267289
 79
     0
 98
        1
 10
0.0
 20
0.0
  0
LINE
  5
71
330
1F
100
AcDbEntity
  8
0
  6
Continuous
 62
     7
370
     0
100
AcDbLine
 10
104.8
 20
9.25
 30
0.0
 11
292.0
 21
9.25
 31
0.0
  0
LINE
  5
72
330
1F
100
AcDbEntity
  8
0
  6
Continuous
 62
     7
370
     0
100
AcDbLine
 10
104.8
 20
44.3549939128
 30
0.0
 11
159.4
 21
44.3549939128
 31
0.0
  0
LINE
  5
73
330
1F
100
AcDbEntity
  8
0
  6
Continuous
 62
     7
370
     0
100
AcDbLine
 10
104.8
 20
50.4162162162
 30
0.0
 11
292.0
 21
50.4162162162
 31
0.0
  0
LINE
  5
74
330
1F
100
AcDbEntity
  8
0
  6
Continuous
 62
     7
370
     0
100
AcDbLine
 10
137.1283783784
 20
50.4162162162
 30
0.0
 11
137.1283783784
 21
5.0
 31
0.0
  0
LINE
  5
75
330
1F
100
AcDbEntity
  8
0
  6
Continuous
 62
     7
370
     0
100
AcDbLine
 10
104.8
 20
61.3001899196
 30
0.0
 11
287.0
 21
61.3001899196
 31
0.0
  0
LINE
  5
76
330
1F
100
AcDbEntity
  8
0
  6
Continuous
 62
     7
370
     0
100
AcDbLine
 10
203.6
 20
26.25
 30
0.0
 11
104.8
 21
26.25
 31
0.0
  0
LINE
  5
77
330
1F
100
AcDbEntity
  8
0
  6
Continuous
 62
     7
370
     0
100
AcDbLine
 10
203.6
 20
30.5
 30
0.0
 11
104.8
 21
30.5
 31
0.0
  0
LINE
  5
78
330
1F
100
AcDbEntity
  8
0
  6
Continuous
 62
     7
370
     0
100
AcDbLine
 10
292.0
 20
34.75
 30
0.0
 11
104.8
 21
34.75
 31
0.0
  0
LINE
  5
79
330
1F
100
AcDbEntity
  8
0
  6
Continuous
 62
     7
370
     0
100
AcDbLine
 10
159.4
 20
39.5349744339
 30
0.0
 11
104.8
 21
39.5349744339
 31
0.0
  0
LINE
  5
7A
330
1F
100
AcDbEntity
  8
0
  6
Continuous
 62
     7
370
     0
100
AcDbLine
 10
159.4
 20
5.0
 30
0.0
 11
159.4
 21
61.3001899196
 31
0.0
  0
LINE
  5
7B
330
1F
100
AcDbEntity
  8
0
  6
Continuous
 62
     7
370
     0
100
AcDbLine
 10
104.8
 20
61.3001899196
 30
0.0
 11
104.8
 21
5.0
 31
0.0
  0
LINE
  5
7C
330
1F
100
AcDbEntity
  8
0
  6
Continuous
 62
     7
370
     0
100
AcDbLine
 10
112.6
 20
50.4162162162
 30
0.0
 11
112.6
 21
5.0
 31
0.0
  0
LINE
  5
7D
330
1F
100
AcDbEntity
  8
0
  6
Continuous
 62
     7
370
     0
100
AcDbLine
 10
147.7418918919
 20
50.4162162162
 30
0.0
 11
147.7418918919
 21
5.0
 31
0.0
  0
LINE
  5
7E
330
1F
100
AcDbEntity
  8
0
  6
Continuous
 62
     7
370
     0
100
AcDbLine
 10
169.8
 20
17.75
 30
0.0
 11
169.8
 21
34.75
 31
0.0
  0
LINE
  5
7F
330
1F
100
AcDbEntity
  8
0
  6
Continuous
 62
     7
370
     0
100
AcDbLine
 10
159.4
 20
13.5
 30
0.0
 11
104.8
 21
13.5
 31
0.0
  0
LINE
  5
80
330
1F
100
AcDbEntity
  8
0
  6
Continuous
 62
     7
370
     0
100
AcDbLine
 10
185.4
 20
50.4162162162
 30
0.0
 11
185.4
 21
17.75
 31
0.0
  0
LINE
  5
81
330
1F
100
AcDbEntity
  8
0
  6
Continuous
 62
     7
370
     0
100
AcDbLine
 10
292.0
 20
17.75
 30
0.0
 11
104.8
 21
17.75
 31
0.0
  0
LINE
  5
82
330
1F
100
AcDbEntity
  8
0
  6
Continuous
 62
     7
370
     0
100
AcDbLine
 10
203.6
 20
22.0
 30
0.0
 11
104.8
 21
22.0
 31
0.0
  0
LINE
  5
83
330
1F
100
AcDbEntity
  8
0
  6
Continuous
 62
     7
370
     0
100
AcDbLine
 10
145.8913405063
 20
59.2033733529
 30
0.0
 11
145.8913405063
 21
51.2179397529
 31
0.0
  0
LINE
  5
84
330
1F
100
AcDbEntity
  8
0
  6
Continuous
 62
     7
370
     0
100
AcDbLine
 10
203.6
 20
50.4162162162
 30
0.0
 11
203.6
 21
5.0
 31
0.0
  0
LINE
  5
85
330
1F
100
AcDbEntity
  8
0
  6
Continuous
 62
     7
370
     0
100
AcDbLine
 10
247.8
 20
5.0
 30
0.0
 11
247.8
 21
9.25
 31
0.0
  0
LINE
  5
86
330
1F
100
AcDbEntity
  8
0
  6
Continuous
 62
     7
370
     0
100
AcDbLine
 10
255.6
 20
44.3513513514
 30
0.0
 11
255.6
 21
50.4162162162
 31
0.0
  0
LINE
  5
87
330
1F
100
AcDbEntity
  8
0
  6
Continuous
 62
     7
370
     0
100
AcDbLine
 10
145.8913405063
 20
59.2033733529
 30
0.0
 11
152.2584156268
 21
59.2033733529
 31
0.0
  0
LINE
  5
88
330
1F
100
AcDbEntity
  8
0
  6
Continuous
 62
     7
370
     0
100
AcDbLine
 10
279.0
 20
9.25
 30
0.0
 11
279.0
 21
17.75
 31
0.0
  0
LINE
  5
89
330
1F
100
AcDbEntity
  8
0
  6
Continuous
 62
     7
370
     0
100
AcDbLine
 10
292.0
 20
44.3513513514
 30
0.0
 11
203.6
 21
44.3513513514
 31
0.0
  0
LINE
  5
8A
330
1F
100
AcDbEntity
  8
0
  6
Continuous
 62
     7
370
     0
100
AcDbLine
 10
145.8913405063
 20
51.2179397529
 30
0.0
 11
156.7409412291
 21
51.2179397529
 31
0.0
  0
LINE
  5
8B
330
1F
100
AcDbEntity
  8
0
  6
Continuous
 62
     7
370
     0
100
AcDbLine
 10
157.9095498026
 20
58.0061942594
 30
0.0
 11
157.9095498026
 21
52.3865483264
 31
0.0
  0
LINE
  5
8C
330
1F
100
AcDbEntity
  8
0
  6
Continuous
 62
     7
370
     0
100
AcDbLine
 10
292.0
 20
5.0
 30
0.0
 11
292.0
 21
77.25
 31
0.0
  0
LINE
  5
8D
330
1F
100
AcDbEntity
  8
0
  6
Continuous
 62
     7
370
     0
100
AcDbLine
 10
292.0
 20
13.5
 30
0.0
 11
279.0
 21
13.5
 31
0.0
  0
LINE
  5
8E
330
1F
100
AcDbEntity
  8
0
  6
Continuous
 62
     7
370
     0
100
AcDbLine
 10
150.9913405064
 20
55.2106565529
 30
0.0
 11
152.1902532983
 21
51.827074169
 31
0.0
  0
LINE
  5
8F
330
1F
100
AcDbEntity
  8
0
  6
Continuous
 62
     7
370
     0
100
AcDbLine
 10
152.1902532983
 20
51.827074169
 30
0.0
 11
146.4413020661
 21
51.827074169
 31
0.0
  0
LINE
  5
90
330
1F
100
AcDbEntity
  8
0
  6
Continuous
 62
     7
370
     0
100
AcDbLine
 10
146.4413020661
 20
58.6354503641
 30
0.0
 11
152.0781871945
 21
58.6354503641
 31
0.0
  0
LINE
  5
91
330
1F
100
AcDbEntity
  8
0
  6
Continuous
 62
     7
370
     0
100
AcDbLine
 10
156.4317655605
 20
58.6354503641
 30
0.0
 11
157.3109602559
 21
57.7562556687
 31
0.0
  0
LINE
  5
92
330
1F
100
AcDbEntity
  8
0
  6
Continuous
 62
     7
370
     0
100
AcDbLine
 10
157.3109602559
 20
55.5197025675
 30
0.0
 11
157.3109602559
 21
57.7562556687
 31
0.0
  0
LINE
  5
93
330
1F
100
AcDbEntity
  8
0
  6
Continuous
 62
     7
370
     0
100
AcDbLine
 10
157.3109602559
 20
52.6364869171
 30
0.0
 11
156.5015475078
 21
51.827074169
 31
0.0
  0
LINE
  5
94
330
1F
100
AcDbEntity
  8
0
  6
Continuous
 62
     7
370
     0
100
AcDbLine
 10
157.3109602559
 20
54.9197025675
 30
0.0
 11
157.3109602559
 21
52.6364869171
 31
0.0
  0
LINE
  5
95
330
1F
100
AcDbEntity
  8
0
  6
Continuous
 62
     7
370
     0
100
AcDbLine
 10
287.0
 20
200.0
 30
0.0
 11
10.0
 21
200.0
 31
0.0
  0
LINE
  5
96
330
1F
100
AcDbEntity
  8
0
  6
Continuous
 62
     7
370
     0
100
AcDbLine
 10
292.0
 20
205.0
 30
0.0
 11
5.0
 21
205.0
 31
0.0
  0
LINE
  5
97
330
1F
100
AcDbEntity
  8
0
  6
Continuous
 62
     7
370
     0
100
AcDbLine
 10
10.0
 20
200.0
 30
0.0
 11
10.0
 21
10.0
 31
0.0
  0
LINE
  5
98
330
1F
100
AcDbEntity
  8
0
  6
Continuous
 62
     7
370
     0
100
AcDbLine
 10
5.0
 20
205.0
 30
0.0
 11
5.0
 21
5.0
 31
0.0
  0
LINE
  5
99
330
1F
100
AcDbEntity
  8
0
  6
Continuous
 62
     7
370
     0
100
AcDbLine
 10
10.0
 20
55.0
 30
0.0
 11
5.0
 21
55.0
 31
0.0
  0
LINE
  5
9A
330
1F
100
AcDbEntity
  8
0
  6
Continuous
 62
     7
370
     0
100
AcDbLine
 10
5.0
 20
105.0
 30
0.0
 11
15.0
 21
105.0
 31
0.0
  0
LINE
  5
9B
330
1F
100
AcDbEntity
  8
0
  6
Continuous
 62
     7
370
     0
100
AcDbLine
 10
5.0
 20
5.0
 30
0.0
 11
292.0
 21
5.0
 31
0.0
  0
LINE
  5
9C
330
1F
100
AcDbEntity
  8
0
  6
Continuous
 62
     7
370
     0
100
AcDbLine
 10
10.0
 20
10.0
 30
0.0
 11
104.8
 21
10.0
 31
0.0
  0
LINE
  5
9D
330
1F
100
AcDbEntity
  8
0
  6
Continuous
 62
     7
370
     0
100
AcDbLine
 10
48.5
 20
5.0
 30
0.0
 11
48.5
 21
10.0
 31
0.0
  0
LINE
  5
9E
330
1F
100
AcDbEntity
  8
0
  6
Continuous
 62
     7
370
     0
100
AcDbLine
 10
98.5
 20
10.0
 30
0.0
 11
98.5
 21
5.0
 31
0.0
  0
LINE
  5
9F
330
1F
100
AcDbEntity
  8
0
  6
Continuous
 62
     7
370
     0
100
AcDbLine
 10
10.0
 20
155.0
 30
0.0
 11
5.0
 21
155.0
 31
0.0
  0
LINE
  5
A0
330
1F
100
AcDbEntity
  8
0
  6
Continuous
 62
     7
370
     0
100
AcDbLine
 10
48.5
 20
200.0
 30
0.0
 11
48.5
 21
205.0
 31
0.0
  0
LINE
  5
A1
330
1F
100
AcDbEntity
  8
0
  6
Continuous
 62
     7
370
     0
100
AcDbLine
 10
98.5
 20
205.0
 30
0.0
 11
98.5
 21
200.0
 31
0.0
  0
LINE
  5
A2
330
1F
100
AcDbEntity
  8
0
  6
Continuous
 62
     7
370
     0
100
AcDbLine
 10
148.5
 20
205.0
 30
0.0
 11
148.5
 21
195.0
 31
0.0
  0
LINE
  5
A3
330
1F
100
AcDbEntity
  8
0
  6
Continuous
 62
     7
370
     0
100
AcDbLine
 10
287.0
 20
50.4162162162
 30
0.0
 11
287.0
 21
200.0
 31
0.0
  0
LINE
  5
A4
330
1F
100
AcDbEntity
  8
0
  6
Continuous
 62
     7
370
     0
100
AcDbLine
 10
292.0
 20
77.25
 30
0.0
 11
292.0
 21
205.0
 31
0.0
  0
LINE
  5
A5
330
1F
100
AcDbEntity
  8
0
  6
Continuous
 62
     7
370
     0
100
AcDbLine
 10
292.0
 20
105.0
 30
0.0
 11
282.0
 21
105.0
 31
0.0
  0
LINE
  5
A6
330
1F
100
AcDbEntity
  8
0
  6
Continuous
 62
     7
370
     0
100
AcDbLine
 10
198.5
 20
205.0
 30
0.0
 11
198.5
 21
200.0
 31
0.0
  0
LINE
  5
A7
330
1F
100
AcDbEntity
  8
0
  6
Continuous
 62
     7
370
     0
100
AcDbLine
 10
248.5
 20
200.0
 30
0.0
 11
248.5
 21
205.0
 31
0.0
  0
LINE
  5
A8
330
1F
100
AcDbEntity
  8
0
  6
Continuous
 62
     7
370
     0
100
AcDbLine
 10
287.0
 20
155.0
 30
0.0
 11
292.0
 21
155.0
 31
0.0
  0
LINE
  5
A9
330
1F
100
AcDbEntity
  8
0
  6
Continuous
 62
     7
370
     0
100
AcDbLine
 10
146.4413020661
 20
58.6354503641
 30
0.0
 11
146.4413020661
 21
51.827074169
 31
0.0
  0
LINE
  5
AA
330
1F
100
AcDbEntity
  8
0
  6
Continuous
 62
     7
370
     0
100
AcDbLine
 10
152.8431987
 20
51.827074169
 30
0.0
 11
156.5015475078
 21
51.827074169
 31
0.0
  0
LINE
  5
AB
330
1F
100
AcDbEntity
  8
0
  6
Continuous
 62
     7
370
     0
100
AcDbLine
 10
151.6244423157
 20
55.2106565529
 30
0.0
 11
152.7112890039
 21
58.6354503641
 31
0.0
  0
LINE
  5
AC
330
1F
100
AcDbEntity
  8
0
  6
Continuous
 62
     7
370
     0
100
AcDbLine
 10
151.6244423157
 20
55.2106565529
 30
0.0
 11
152.8431987
 21
51.827074169
 31
0.0
  0
LINE
  5
AD
330
1F
100
AcDbEntity
  8
0
  6
Continuous
 62
     7
370
     0
100
AcDbLine
 10
152.8915174362
 20
59.2033733529
 30
0.0
 11
156.7123707091
 21
59.2033733529
 31
0.0
  0
LINE
  5
AE
330
1F
100
AcDbEntity
  8
0
  6
Continuous
 62
     7
370
     0
100
AcDbLine
 10
156.7123707091
 20
59.2033733529
 30
0.0
 11
157.9095498026
 21
58.0061942594
 31
0.0
  0
LINE
  5
AF
330
1F
100
AcDbEntity
  8
0
  6
Continuous
 62
     7
370
     0
100
AcDbLine
 10
152.6449991426
 20
60.4215477714
 30
0.0
 11
153.278100952
 21
60.4215477714
 31
0.0
  0
LINE
  5
B0
330
1F
100
AcDbEntity
  8
0
  6
Continuous
 62
     7
370
     0
100
AcDbLine
 10
157.3109602559
 20
55.5197025675
 30
0.0
 11
156.1109602559
 21
55.5197025675
 31
0.0
  0
LINE
  5
B1
330
1F
100
AcDbEntity
  8
0
  6
Continuous
 62
     7
370
     0
100
AcDbLine
 10
156.1109602559
 20
55.5197025675
 30
0.0
 11
156.1109602559
 21
54.9197025675
 31
0.0
  0
LINE
  5
B2
330
1F
100
AcDbEntity
  8
0
  6
Continuous
 62
     7
370
     0
100
AcDbLine
 10
156.1109602559
 20
54.9197025675
 30
0.0
 11
157.3109602559
 21
54.9197025675
 31
0.0
  0
LINE
  5
B3
330
1F
100
AcDbEntity
  8
0
  6
Continuous
 62
     7
370
     0
100
AcDbLine
 10
152.0781871945
 20
58.6354503641
 30
0.0
 11
150.9913405064
 21
55.2106565529
 31
0.0
  0
LINE
  5
B4
330
1F
100
AcDbEntity
  8
0
  6
Continuous
 62
     7
370
     0
100
AcDbLine
 10
152.2584156268
 20
59.2033733529
 30
0.0
 11
152.6449991426
 21
60.4215477714
 31
0.0
  0
LINE
  5
B5
330
1F
100
AcDbEntity
  8
0
  6
Continuous
 62
     7
370
     0
100
AcDbLine
 10
152.8915174362
 20
59.2033733529
 30
0.0
 11
153.278100952
 21
60.4215477714
 31
0.0
  0
LINE
  5
B6
330
1F
100
AcDbEntity
  8
0
  6
Continuous
 62
     7
370
     0
100
AcDbLine
 10
152.7112890039
 20
58.6354503641
 30
0.0
 11
156.4317655605
 21
58.6354503641
 31
0.0
  0
LINE
  5
B7
330
1F
100
AcDbEntity
  8
0
  6
Continuous
 62
     7
370
     0
100
AcDbLine
 10
157.9095498026
 20
52.3865483264
 30
0.0
 11
156.7409412291
 21
51.2179397529
 31
0.0
  0
MTEXT
  5
B9
330
1F
100
AcDbEntity
  8
0
  6
Continuous
 62
     7
370
     0
100
AcDbMText
 10
6.6666666667
 20
131.1680164036
 30
0.0
 40
1.8520833333
 41
0.0
 71
     1
 72
     1
  1
B
  7
SLDTEXTSTYLE0
 73
     1
 44
1.0
  0
MTEXT
  5
BA
330
1F
100
AcDbEntity
  8
0
  6
Continuous
 62
     7
370
     0
100
AcDbMText
 10
6.6666666667
 20
81.1680164036
 30
0.0
 40
1.8520833333
 41
0.0
 71
     1
 72
     1
  1
C
  7
SLDTEXTSTYLE0
 73
     1
 44
1.0
  0
MTEXT
  5
BB
330
1F
100
AcDbEntity
  8
0
  6
Continuous
 62
     7
370
     0
100
AcDbMText
 10
6.6666666667
 20
31.1680164036
 30
0.0
 40
1.8520833333
 41
0.0
 71
     1
 72
     1
  1
D
  7
SLDTEXTSTYLE0
 73
     1
 44
1.0
  0
MTEXT
  5
BC
330
1F
100
AcDbEntity
  8
0
  6
Continuous
 62
     7
370
     0
100
AcDbMText
 10
23.0833373333
 20
8.6680164036
 30
0.0
 40
1.8520833333
 41
0.0
 71
     1
 72
     1
  1
1
  7
SLDTEXTSTYLE0
 73
     1
 44
1.0
  0
MTEXT
  5
BD
330
1F
100
AcDbEntity
  8
0
  6
Continuous
 62
     7
370
     0
100
AcDbMText
 10
72.6666706667
 20
8.6680164036
 30
0.0
 40
1.8520833333
 41
0.0
 71
     1
 72
     1
  1
2
  7
SLDTEXTSTYLE0
 73
     1
 44
1.0
  0
MTEXT
  5
BE
330
1F
100
AcDbEntity
  8
0
  6
Continuous
 62
     7
370
     0
100
AcDbMText
 10
6.6666666667
 20
181.1680164036
 30
0.0
 40
1.8520833333
 41
0.0
 71
     1
 72
     1
  1
A
  7
SLDTEXTSTYLE0
 73
     1
 44
1.0
  0
MTEXT
  5
BF
330
1F
100
AcDbEntity
  8
0
  6
Continuous
 62
     7
370
     0
100
AcDbMText
 10
122.6666706667
 20
203.6680164036
 30
0.0
 40
1.8520833333
 41
0.0
 71
     1
 72
     1
  1
3
  7
SLDTEXTSTYLE0
 73
     1
 44
1.0
  0
MTEXT
  5
C0
330
1F
100
AcDbEntity
  8
0
  6
Continuous
 62
     7
370
     0
100
AcDbMText
 10
72.6666706667
 20
203.6680164036
 30
0.0
 40
1.8520833333
 41
0.0
 71
     1
 72
     1
  1
2
  7
SLDTEXTSTYLE0
 73
     1
 44
1.0
  0
MTEXT
  5
C1
330
1F
100
AcDbEntity
  8
0
  6
Continuous
 62
     7
370
     0
100
AcDbMText
 10
23.0833373333
 20
203.6680164036
 30
0.0
 40
1.8520833333
 41
0.0
 71
     1
 72
     1
  1
1
  7
SLDTEXTSTYLE0
 73
     1
 44
1.0
  0
MTEXT
  5
C2
330
1F
100
AcDbEntity
  8
0
  6
Continuous
 62
     7
370
     0
100
AcDbMText
 10
172.6666706667
 20
203.6680164036
 30
0.0
 40
1.8520833333
 41
0.0
 71
     1
 72
     1
  1
4
  7
SLDTEXTSTYLE0
 73
     1
 44
1.0
  0
MTEXT
  5
C3
330
1F
100
AcDbEntity
  8
0
  6
Continuous
 62
     7
370
     0
100
AcDbMText
 10
288.6666746667
 20
131.1680164036
 30
0.0
 40
1.8520833333
 41
0.0
 71
     1
 72
     1
  1
B
  7
SLDTEXTSTYLE0
 73
     1
 44
1.0
  0
MTEXT
  5
C4
330
1F
100
AcDbEntity
  8
0
  6
Continuous
 62
     7
370
     0
100
AcDbMText
 10
288.6666746667
 20
181.1680164036
 30
0.0
 40
1.8520833333
 41
0.0
 71
     1
 72
     1
  1
A
  7
SLDTEXTSTYLE0
 73
     1
 44
1.0
  0
MTEXT
  5
C5
330
1F
100
AcDbEntity
  8
0
  6
Continuous
 62
     7
370
     0
100
AcDbMText
 10
222.6666706667
 20
203.6680164036
 30
0.0
 40
1.8520833333
 41
0.0
 71
     1
 72
     1
  1
5
  7
SLDTEXTSTYLE0
 73
     1
 44
1.0
  0
MTEXT
  5
C6
330
1F
100
AcDbEntity
  8
0
  6
Continuous
 62
     7
370
     0
100
AcDbMText
 10
272.6666706667
 20
203.6680164036
 30
0.0
 40
1.8520833333
 41
0.0
 71
     1
 72
     1
  1
6
  7
SLDTEXTSTYLE0
 73
     1
 44
1.0
  0
MTEXT
  5
C7
330
1F
100
AcDbEntity
  8
0
  6
Continuous
 62
     7
370
     0
100
AcDbMText
 10
288.6926520658
 20
82.1496220514
 30
0.0
 40
1.8520833333
 41
0.0
 71
     1
 72
     1
  1
C
  7
SLDTEXTSTYLE0
 73
     1
 44
1.0
  0
INSERT
  5
CF
330
1F
100
AcDbEntity
  8
0
  6
Continuous
 62
     7
370
     0
100
AcDbBlockReference
  2
SW_NOTE_0
 10
161.8628788362
 20
56.8303314818
 30
0.0
  0
MTEXT
  5
D0
330
1F
100
AcDbEntity
  8
0
  6
Continuous
 62
     7
370
     0
100
AcDbMText
 10
166.3828605405
 20
49.0210006857
 30
0.0
 40
2.1166666667
 41
0.0
 71
     1
 72
     1
  1
Zul. Abw.
  7
SLDTEXTSTYLE1
 73
     1
 44
1.0
  0
INSERT
  5
D6
330
1F
100
AcDbEntity
  8
0
  6
Continuous
 62
     7
370
     0
100
AcDbBlockReference
  2
SW_NOTE_1
 10
162.0674523886
 20
13.4534441898
 30
0.0
  0
MTEXT
  5
D7
330
1F
100
AcDbEntity
  8
0
  6
Continuous
 62
     7
370
     0
100
AcDbMText
 10
160.9535935135
 20
8.5153991384
 30
0.0
 40
2.38125
 41
0.0
 71
     1
 72
     1
  1
Plott-Datum:
  7
SLDTEXTSTYLE1
 73
     1
 44
1.0
  0
MTEXT
  5
D8
330
1F
100
AcDbEntity
  8
0
  6
Continuous
 62
     7
370
     0
100
AcDbMText
 10
149.757852973
 20
8.4252212263
 30
0.0
 40
2.1166666667
 41
0.0
 71
     1
 72
     1
  1
Name
  7
SLDTEXTSTYLE1
 73
     1
 44
1.0
  0
MTEXT
  5
D9
330
1F
100
AcDbEntity
  8
0
  6
Continuous
 62
     7
370
     0
100
AcDbMText
 10
173.190429121
 20
33.9540383138
 30
0.0
 40
2.38125
 41
0.0
 71
     1
 72
     1
  1
Datum
  7
SLDTEXTSTYLE1
 73
     1
 44
1.0
  0
MTEXT
  5
DA
330
1F
100
AcDbEntity
  8
0
  6
Continuous
 62
     7
370
     0
100
AcDbMText
 10
189.9114133268
 20
33.8976126081
 30
0.0
 40
2.38125
 41
0.0
 71
     1
 72
     1
  1
Name
  7
SLDTEXTSTYLE1
 73
     1
 44
1.0
  0
MTEXT
  5
DB
330
1F
100
AcDbEntity
  8
0
  6
Continuous
 62
     7
370
     0
100
AcDbMText
 10
187.7969589998
 20
48.684458542
 30
0.0
 40
2.1166666667
 41
0.0
 71
     1
 72
     1
  1
Oberfläche
  7
SLDTEXTSTYLE1
 73
     1
 44
1.0
  0
MTEXT
  5
DC
330
1F
100
AcDbEntity
  8
0
  6
Continuous
 62
     7
370
     0
100
AcDbMText
 10
205.3110326653
 20
48.8825680771
 30
0.0
 40
2.6458333333
 41
0.0
 71
     1
 72
     1
  1
Maßstab: 1:1
  7
SLDTEXTSTYLE1
 73
     1
 44
1.0
  0
MTEXT
  5
DD
330
1F
100
AcDbEntity
  8
0
  6
Continuous
 62
     7
370
     0
100
AcDbMText
 10
206.9641484838
 20
32.7785684724
 30
0.0
 40
5.2916666667
 41
0.0
 71
     1
 72
     1
  1
HR11
  7
SLDTEXTSTYLE1
 73
     1
 44
1.0
  0
MTEXT
  5
DE
330
1F
100
AcDbEntity
  8
0
  6
Continuous
 62
     7
370
     0
100
AcDbMText
 10
205.3660839549
 20
43.124501396
 30
0.0
 40
2.9104166667
 41
0.0
 71
     1
 72
     1
  1
Mat.:
  7
SLDTEXTSTYLE1
 73
     1
 44
1.0
  0
MTEXT
  5
DF
330
1F
100
AcDbEntity
  8
0
  6
Continuous
 62
     7
370
     0
100
AcDbMText
 10
205.2962827693
 20
38.6500553438
 30
0.0
 40
2.6458333333
 41
0.0
 71
     1
 72
     1
  1
Farbe:
  7
SLDTEXTSTYLE1
 73
     1
 44
1.0
  0
MTEXT
  5
E0
330
1F
100
AcDbEntity
  8
0
  6
Continuous
 62
     7
370
     0
100
AcDbMText
 10
106.4750443539
 20
57.5197365936
 30
0.0
 40
4.4979166667
 41
0.0
 71
     1
 72
     1
  1
BRUCHMANN
  7
SLDTEXTSTYLE1
 73
     1
 44
1.0
  0
MTEXT
  5
E1
330
1F
100
AcDbEntity
  8
0
  6
Continuous
 62
     7
370
     0
100
AcDbMText
 10
161.0675959744
 20
33.9194339797
 30
0.0
 40
2.38125
 41
0.0
 71
     1
 72
     1
  1
2014
  7
SLDTEXTSTYLE1
 73
     1
 44
1.0
  0
MTEXT
  5
E2
330
1F
100
AcDbEntity
  8
0
  6
Continuous
 62
     7
370
     0
100
AcDbMText
 10
160.7617980805
 20
29.4772037472
 30
0.0
 40
2.1166666667
 41
0.0
 71
     1
 72
     1
  1
Bearb.
  7
SLDTEXTSTYLE1
 73
     1
 44
1.0
  0
MTEXT
  5
E3
330
1F
100
AcDbEntity
  8
0
  6
Continuous
 62
     7
370
     0
100
AcDbMText
 10
160.7856010064
 20
25.4160512433
 30
0.0
 40
2.1166666667
 41
0.0
 71
     1
 72
     1
  1
Gepr.
  7
SLDTEXTSTYLE1
 73
     1
 44
1.0
  0
MTEXT
  5
E4
330
1F
100
AcDbEntity
  8
0
  6
Continuous
 62
     7
370
     0
100
AcDbMText
 10
160.8479263047
 20
20.8938330792
 30
0.0
 40
2.1166666667
 41
0.0
 71
     1
 72
     1
  1
Norm
  7
SLDTEXTSTYLE1
 73
     1
 44
1.0
  0
MTEXT
  5
E5
330
1F
100
AcDbEntity
  8
0
  6
Continuous
 62
     7
370
     0
100
AcDbMText
 10
185.6098587607
 20
29.8514623332
 30
0.0
 40
2.38125
 41
0.0
 71
     1
 72
     1
  1
Schmelzer
  7
SLDTEXTSTYLE1
 73
     1
 44
1.0
  0
MTEXT
  5
E6
330
1F
100
AcDbEntity
  8
0
  6
Continuous
 62
     7
370
     0
100
AcDbMText
 10
173.4177006736
 20
29.6454951761
 30
0.0
 40
2.38125
 41
0.0
 71
     1
 72
     1
  1
29.04
  7
SLDTEXTSTYLE1
 73
     1
 44
1.0
  0
MTEXT
  5
E7
330
1F
100
AcDbEntity
  8
0
  6
Continuous
 62
     7
370
     0
100
AcDbMText
 10
138.9268931093
 20
8.3550521361
 30
0.0
 40
2.1166666667
 41
0.0
 71
     1
 72
     1
  1
Datum
  7
SLDTEXTSTYLE1
 73
     1
 44
1.0
  0
MTEXT
  5
E8
330
1F
100
AcDbEntity
  8
0
  6
Continuous
 62
     7
370
     0
100
AcDbMText
 10
119.7561902443
 20
8.2268255311
 30
0.0
 40
2.1166666667
 41
0.0
 71
     1
 72
     1
  1
Änd.-Nr.
  7
SLDTEXTSTYLE1
 73
     1
 44
1.0
  0
MTEXT
  5
E9
330
1F
100
AcDbEntity
  8
0
  6
Continuous
 62
     7
370
     0
100
AcDbMText
 10
105.9695529341
 20
8.2857171917
 30
0.0
 40
2.1166666667
 41
0.0
 71
     1
 72
     1
  1
Zust.
  7
SLDTEXTSTYLE1
 73
     1
 44
1.0
  0
MTEXT
  5
EA
330
1F
100
AcDbEntity
  8
0
  6
Continuous
 62
     7
370
     0
100
AcDbMText
 10
204.2932659687
 20
8.1484885455
 30
0.0
 40
2.1166666667
 41
0.0
 71
     1
 72
     1
  1
Ers. f. Zchng. v.
  7
SLDTEXTSTYLE1
 73
     1
 44
1.0
  0
MTEXT
  5
EB
330
1F
100
AcDbEntity
  8
0
  6
Continuous
 62
     7
370
     0
100
AcDbMText
 10
248.5491737684
 20
8.3026903148
 30
0.0
 40
2.1166666667
 41
0.0
 71
     1
 72
     1
  1
Ers. d. Zchng. v.
  7
SLDTEXTSTYLE1
 73
     1
 44
1.0
  0
MTEXT
  5
EC
330
1F
100
AcDbEntity
  8
0
  6
Continuous
 62
     7
370
     0
100
AcDbMText
 10
279.5437294051
 20
16.629585859
 30
0.0
 40
2.1166666667
 41
0.0
 71
     1
 72
     1
  1
Blatt
  7
SLDTEXTSTYLE1
 73
     1
 44
1.0
  0
MTEXT
  5
ED
330
1F
100
AcDbEntity
  8
0
  6
Continuous
 62
     7
370
     0
100
AcDbMText
 10
288.256327467
 20
12.4697425588
 30
0.0
 40
2.1166666667
 41
0.0
 71
     1
 72
     1
  1
Bl.
  7
SLDTEXTSTYLE1
 73
     1
 44
1.0
  0
LINE
  5
EE
330
1F
100
AcDbEntity
  8
0
  6
Continuous
 62
     7
370
    15
100
AcDbLine
 10
79.1118982012
 20
89.6502728692
 30
0.0
 11
86.0790255244
 21
89.7141355208
 31
0.0
  0
LINE
  5
EF
330
1F
100
AcDbEntity
  8
0
  6
Continuous
 62
     7
370
    15
100
AcDbLine
 10
72.1447559769
 20
89.7141355208
 30
0.0
 11
79.1118982012
 21
89.6502728692
 31
0.0
  0
ARC
  5
F0
330
1F
100
AcDbEntity
  8
0
  6
Continuous
 62
     7
370
    15
100
AcDbCircle
 10
82.4758024796
 20
85.5864494082
 30
0.0
 40
0.1000000000000211
100
AcDbArc
 50
135.0010908447
 51
180.0
  0
LINE
  5
F1
330
1F
100
AcDbEntity
  8
0
  6
Continuous
 62
     7
370
    15
100
AcDbLine
 10
82.3758038457
 20
85.5864496089
 30
0.0
 11
82.3758038457
 21
85.5640792406
 31
0.0
  0
LINE
  5
F2
330
1F
100
AcDbEntity
  8
0
  6
Continuous
 62
     7
370
    15
100
AcDbLine
 10
82.4064853366
 20
85.6585563279
 30
0.0
 11
82.4050846274
 21
85.6571584127
 31
0.0
  0
ELLIPSE
  5
F3
330
1F
100
AcDbEntity
  8
0
  6
Continuous
 62
     7
370
    15
100
AcDbEllipse
 10
73.7028567763
 20
103.8768474865
 30
0.0
 11
1.448624582249707
 21
0.4228801981906828
 31
0.0
210
0.0
220
0.0
230
1.0
 40
0.9992732199
 41
1.295692376139494
 42
2.84030876415447
  0
LINE
  5
F4
330
1F
100
AcDbEntity
  8
0
  6
Continuous
 62
     7
370
    15
100
AcDbLine
 10
73.6896934683
 20
105.3848606653
 30
0.0
 11
79.1118982012
 21
105.4342691905
 31
0.0
  0
LINE
  5
F5
330
1F
100
AcDbEntity
  8
0
  6
Continuous
 62
     7
370
    15
100
AcDbLine
 10
79.1118982012
 20
105.4342691905
 30
0.0
 11
79.1118982012
 21
101.5180689401
 31
0.0
  0
LINE
  5
F6
330
1F
100
AcDbEntity
  8
0
  6
Continuous
 62
     7
370
    15
100
AcDbLine
 10
72.1534582551
 20
101.5760363198
 30
0.0
 11
79.1118982012
 21
101.5180689401
 31
0.0
  0
LINE
  5
F7
330
1F
100
AcDbEntity
  8
0
  6
Continuous
 62
     7
370
    15
100
AcDbLine
 10
72.1534582551
 20
101.5760363198
 30
0.0
 11
72.1940937216
 21
103.9025769687
 31
0.0
  0
LINE
  5
F8
330
1F
100
AcDbEntity
  8
0
  6
Continuous
 62
     7
370
    15
100
AcDbLine
 10
84.534088033
 20
105.3848606653
 30
0.0
 11
79.1118982012
 21
105.4342691905
 31
0.0
  0
ELLIPSE
  5
F9
330
1F
100
AcDbEntity
  8
0
  6
Continuous
 62
     7
370
    15
100
AcDbEllipse
 10
84.5209263375
 20
103.8768474865
 30
0.0
 11
1.448624582249693
 21
-0.4228801981907112
 31
0.0
210
0.0
220
0.0
230
1.0
 40
0.9992732199
 41
0.3012838894353436
 42
1.845900277450319
  0
LINE
  5
FA
330
1F
100
AcDbEntity
  8
0
  6
Continuous
 62
     7
370
    15
100
AcDbLine
 10
86.0297026808
 20
103.9025769687
 30
0.0
 11
86.0703381474
 21
101.5760363198
 31
0.0
  0
LINE
  5
FB
330
1F
100
AcDbEntity
  8
0
  6
Continuous
 62
     7
370
    15
100
AcDbLine
 10
79.1118982012
 20
101.5180689401
 30
0.0
 11
86.0703381474
 21
101.5760363198
 31
0.0
  0
LINE
  5
FC
330
1F
100
AcDbEntity
  8
0
  6
Continuous
 62
     7
370
    15
100
AcDbLine
 10
79.1118982012
 20
101.5180689401
 30
0.0
 11
79.1118982012
 21
100.997448445
 31
0.0
  0
LINE
  5
FD
330
1F
100
AcDbEntity
  8
0
  6
Continuous
 62
     7
370
    15
100
AcDbLine
 10
79.1118982012
 20
100.997448445
 30
0.0
 11
72.1447559769
 21
101.0554903305
 31
0.0
  0
ELLIPSE
  5
FE
330
1F
100
AcDbEntity
  8
0
  6
Continuous
 62
     7
370
    15
100
AcDbEllipse
 10
72.1535293432
 20
101.557929395
 30
0.0
 11
0.008770086612628347
 21
0.5029443933474199
 31
0.0
210
0.0
220
0.0
230
1.0
 40
0.0007817125
 41
1.534799034379015
 42
3.096793224120037
  0
LINE
  5
FF
330
1F
100
AcDbEntity
  8
0
  6
Continuous
 62
     7
370
    15
100
AcDbLine
 10
86.0790255244
 20
101.0554903305
 30
0.0
 11
79.1118982012
 21
100.997448445
 31
0.0
  0
ELLIPSE
  5
100
330
1F
100
AcDbEntity
  8
0
  6
Continuous
 62
     7
370
    15
100
AcDbEllipse
 10
86.0702537706
 20
101.557929395
 30
0.0
 11
-0.008770086612628349
 21
0.5029443933473915
 31
0.0
210
0.0
220
0.0
230
1.0
 40
0.0007817125
 41
3.186392083003672
 42
4.748386272803197
  0
LINE
  5
101
330
1F
100
AcDbEntity
  8
0
  6
Continuous
 62
     7
370
    15
100
AcDbLine
 10
86.1290338214
 20
101.027399779
 30
0.0
 11
86.0790255244
 21
101.0269639201
 31
0.0
  0
LINE
  5
102
330
1F
100
AcDbEntity
  8
0
  6
Continuous
 62
     7
370
    15
100
AcDbLine
 10
86.1290487225
 20
101.0269676454
 30
0.0
 11
79.1118982012
 21
100.9660796381
 31
0.0
  0
LINE
  5
103
330
1F
100
AcDbEntity
  8
0
  6
Continuous
 62
     7
370
    15
100
AcDbLine
 10
79.1118982012
 20
100.997448445
 30
0.0
 11
79.1118982012
 21
100.9660796381
 31
0.0
  0
LINE
  5
104
330
1F
100
AcDbEntity
  8
0
  6
Continuous
 62
     7
370
    15
100
AcDbLine
 10
86.0790255244
 20
101.0554903305
 30
0.0
 11
86.0790255244
 21
101.0269639201
 31
0.0
  0
LINE
  5
105
330
1F
100
AcDbEntity
  8
0
  6
Continuous
 62
     7
370
    15
100
AcDbLine
 10
72.0947327788
 20
101.0269676454
 30
0.0
 11
79.1118982012
 21
100.9660796381
 31
0.0
  0
LINE
  5
106
330
1F
100
AcDbEntity
  8
0
  6
Continuous
 62
     7
370
    15
100
AcDbLine
 10
72.09474768
 20
101.027399779
 30
0.0
 11
72.1447559769
 21
101.0269639201
 31
0.0
  0
LINE
  5
107
330
1F
100
AcDbEntity
  8
0
  6
Continuous
 62
     7
370
    15
100
AcDbLine
 10
72.1447559769
 20
101.0269639201
 30
0.0
 11
72.1447559769
 21
101.0554903305
 31
0.0
  0
LINE
  5
108
330
1F
100
AcDbEntity
  8
0
  6
Continuous
 62
     7
370
    15
100
AcDbLine
 10
79.1118982012
 20
100.9660796381
 30
0.0
 11
79.1118982012
 21
100.9403881735
 31
0.0
  0
ELLIPSE
  5
109
330
1F
100
AcDbEntity
  8
0
  6
Continuous
 62
     7
370
    15
100
AcDbEllipse
 10
73.7028567763
 20
92.4831442265
 30
0.0
 11
1.497664231851459
 21
-0.1849618253036738
 31
0.0
210
0.0
220
0.0
230
1.0
 40
0.9981270841
 41
1.702173128417343
 42
3.246789516432329
  0
LINE
  5
10A
330
1F
100
AcDbEntity
  8
0
  6
Continuous
 62
     7
370
    15
100
AcDbLine
 10
73.6896934683
 20
93.9893522418
 30
0.0
 11
79.1118982012
 21
94.03411533
 31
0.0
  0
LINE
  5
10B
330
1F
100
AcDbEntity
  8
0
  6
Continuous
 62
     7
370
    15
100
AcDbLine
 10
79.1118982012
 20
94.03411533
 30
0.0
 11
79.1118982012
 21
90.1226331598
 31
0.0
  0
LINE
  5
10C
330
1F
100
AcDbEntity
  8
0
  6
Continuous
 62
     7
370
    15
100
AcDbLine
 10
72.1534582551
 20
90.1864157177
 30
0.0
 11
79.1118982012
 21
90.1226331598
 31
0.0
  0
LINE
  5
10D
330
1F
100
AcDbEntity
  8
0
  6
Continuous
 62
     7
370
    15
100
AcDbLine
 10
72.1534582551
 20
90.1864157177
 30
0.0
 11
72.1940937216
 21
92.510119558
 31
0.0
  0
LINE
  5
10E
330
1F
100
AcDbEntity
  8
0
  6
Continuous
 62
     7
370
    15
100
AcDbLine
 10
79.1118982012
 20
94.059657783
 30
0.0
 11
79.1118982012
 21
94.03411533
 31
0.0
  0
LINE
  5
10F
330
1F
100
AcDbEntity
  8
0
  6
Continuous
 62
     7
370
    15
100
AcDbLine
 10
73.6896934683
 20
94.0394685722
 30
0.0
 11
73.6896934683
 21
93.9893522418
 31
0.0
  0
LINE
  5
110
330
1F
100
AcDbEntity
  8
0
  6
Continuous
 62
     7
370
    15
100
AcDbLine
 10
73.6896934683
 20
94.0394685722
 30
0.0
 11
73.4652819808
 21
94.0375183827
 31
0.0
  0
LINE
  5
111
330
1F
100
AcDbEntity
  8
0
  6
Continuous
 62
     7
370
    15
100
AcDbLine
 10
84.534088033
 20
93.9893522418
 30
0.0
 11
79.1118982012
 21
94.03411533
 31
0.0
  0
ELLIPSE
  5
112
330
1F
100
AcDbEntity
  8
0
  6
Continuous
 62
     7
370
    15
100
AcDbEllipse
 10
84.5209263375
 20
92.4831442265
 30
0.0
 11
1.497664231851459
 21
0.184961825303688
 31
0.0
210
0.0
220
0.0
230
1.0
 40
0.9981270841
 41
6.177988444337058
 42
7.722604832352028
  0
LINE
  5
113
330
1F
100
AcDbEntity
  8
0
  6
Continuous
 62
     7
370
    15
100
AcDbLine
 10
86.0297026808
 20
92.510119558
 30
0.0
 11
86.0703381474
 21
90.1864157177
 31
0.0
  0
LINE
  5
114
330
1F
100
AcDbEntity
  8
0
  6
Continuous
 62
     7
370
    15
100
AcDbLine
 10
79.1118982012
 20
90.1226331598
 30
0.0
 11
86.0703381474
 21
90.1864157177
 31
0.0
  0
LINE
  5
115
330
1F
100
AcDbEntity
  8
0
  6
Continuous
 62
     7
370
    15
100
AcDbLine
 10
84.534088033
 20
94.0394685722
 30
0.0
 11
84.7584995206
 21
94.0375183827
 31
0.0
  0
LINE
  5
116
330
1F
100
AcDbEntity
  8
0
  6
Continuous
 62
     7
370
    15
100
AcDbLine
 10
84.534088033
 20
93.9893522418
 30
0.0
 11
84.534088033
 21
94.0394685722
 31
0.0
  0
ELLIPSE
  5
117
330
1F
100
AcDbEntity
  8
0
  6
Continuous
 62
     7
370
    15
100
AcDbEllipse
 10
84.5209263375
 20
92.5367065066
 30
0.0
 11
1.508999999999986
 21
1.421085471520200E-14
 31
0.0
210
0.0
220
0.0
230
1.0
 40
0.9959045608
 41
0.0174532925199372
 42
1.562069680534915
  0
LINE
  5
118
330
1F
100
AcDbEntity
  8
0
  6
Continuous
 62
     7
370
    15
100
AcDbLine
 10
86.0297026808
 20
92.5629348612
 30
0.0
 11
86.0297026808
 21
92.510119558
 31
0.0
  0
LINE
  5
119
330
1F
100
AcDbEntity
  8
0
  6
Continuous
 62
     7
370
    15
100
AcDbLine
 10
72.1940937216
 20
92.510119558
 30
0.0
 11
72.1940937216
 21
92.5629348612
 31
0.0
  0
ELLIPSE
  5
11A
330
1F
100
AcDbEntity
  8
0
  6
Continuous
 62
     7
370
    15
100
AcDbEllipse
 10
73.7028567763
 20
92.5367065066
 30
0.0
 11
1.509
 21
0.0
 31
0.0
210
0.0
220
0.0
230
1.0
 40
0.9959045608
 41
1.579522973054869
 42
3.124139361069846
  0
LINE
  5
11B
330
1F
100
AcDbEntity
  8
0
  6
Continuous
 62
     7
370
    15
100
AcDbLine
 10
86.0790255244
 20
89.7480431131
 30
0.0
 11
86.0297026808
 21
92.5629348612
 31
0.0
  0
LINE
  5
11C
330
1F
100
AcDbEntity
  8
0
  6
Continuous
 62
     7
370
    15
100
AcDbLine
 10
86.0790255244
 20
89.7148200429
 30
0.0
 11
86.0790255244
 21
89.7480431131
 31
0.0
  0
ELLIPSE
  5
11D
330
1F
100
AcDbEntity
  8
0
  6
Continuous
 62
     7
370
    15
100
AcDbEllipse
 10
86.0702537706
 20
90.2170761616
 30
0.0
 11
-0.008766945328105184
 21
0.5029407704994213
 31
0.0
210
0.0
220
0.0
230
1.0
 40
0.0009104225
 41
1.631780028449098
 42
3.193774218236329
  0
LINE
  5
11E
330
1F
100
AcDbEntity
  8
0
  6
Continuous
 62
     7
370
    15
100
AcDbLine
 10
72.1447559769
 20
89.7480431131
 30
0.0
 11
72.1940937216
 21
92.5629348612
 31
0.0
  0
ELLIPSE
  5
11F
330
1F
100
AcDbEntity
  8
0
  6
Continuous
 62
     7
370
    15
100
AcDbEllipse
 10
72.1535293432
 20
90.2170761616
 30
0.0
 11
0.008766945328105182
 21
0.5029407704994355
 31
0.0
210
0.0
220
0.0
230
1.0
 40
0.0009104225
 41
3.089411088958068
 42
4.651405278730545
  0
LINE
  5
120
330
1F
100
AcDbEntity
  8
0
  6
Continuous
 62
     7
370
    15
100
AcDbLine
 10
72.1447559769
 20
89.7480431131
 30
0.0
 11
72.1447559769
 21
89.7148200429
 31
0.0
  0
LINE
  5
121
330
1F
100
AcDbEntity
  8
0
  6
Continuous
 62
     7
370
    15
100
AcDbLine
 10
79.1118982012
 20
90.1226331598
 30
0.0
 11
79.1118982012
 21
89.6509573913
 31
0.0
  0
LINE
  5
122
330
1F
100
AcDbEntity
  8
0
  6
Continuous
 62
     7
370
    15
100
AcDbLine
 10
72.0954182322
 20
89.7484724528
 30
0.0
 11
72.1447559769
 21
89.7480431131
 31
0.0
  0
LINE
  5
123
330
1F
100
AcDbEntity
  8
0
  6
Continuous
 62
     7
370
    15
100
AcDbLine
 10
86.1283632691
 20
89.7484724528
 30
0.0
 11
86.0790255244
 21
89.7480431131
 31
0.0
  0
LINE
  5
124
330
1F
100
AcDbEntity
  8
0
  6
Continuous
 62
     7
370
    15
100
AcDbLine
 10
79.1118982012
 20
89.6502728692
 30
0.0
 11
79.1118982012
 21
89.6228891916
 31
0.0
  0
LINE
  5
125
330
1F
100
AcDbEntity
  8
0
  6
Continuous
 62
     7
370
    15
100
AcDbLine
 10
73.6896934683
 20
168.4837848998
 30
0.0
 11
79.1118982012
 21
168.43425344
 31
0.0
  0
ELLIPSE
  5
126
330
1F
100
AcDbEntity
  8
0
  6
Continuous
 62
     7
370
    15
100
AcDbEllipse
 10
73.7028567763
 20
169.9916498151
 30
0.0
 11
1.456751411816441
 21
-0.3939680289269347
 31
0.0
210
0.0
220
0.0
230
1.0
 40
0.9991798637
 41
3.422963815707296
 42
4.967580203722289
  0
LINE
  5
127
330
1F
100
AcDbEntity
  8
0
  6
Continuous
 62
     7
370
    15
100
AcDbLine
 10
72.1940937216
 20
169.9659587002
 30
0.0
 11
72.1534582551
 21
172.2922758318
 31
0.0
  0
LINE
  5
128
330
1F
100
AcDbEntity
  8
0
  6
Continuous
 62
     7
370
    15
100
AcDbLine
 10
79.1118982012
 20
172.3500848866
 30
0.0
 11
72.1534582551
 21
172.2922758318
 31
0.0
  0
LINE
  5
129
330
1F
100
AcDbEntity
  8
0
  6
Continuous
 62
     7
370
    15
100
AcDbLine
 10
79.1118982012
 20
168.43425344
 30
0.0
 11
79.1118982012
 21
172.3500848866
 31
0.0
  0
ELLIPSE
  5
12A
330
1F
100
AcDbEntity
  8
0
  6
Continuous
 62
     7
370
    15
100
AcDbEllipse
 10
84.5209263375
 20
169.9916498151
 30
0.0
 11
1.456751411816427
 21
0.3939680289269631
 31
0.0
210
0.0
220
0.0
230
1.0
 40
0.9991798637
 41
4.4571977570471
 42
6.001814145062089
  0
LINE
  5
12B
330
1F
100
AcDbEntity
  8
0
  6
Continuous
 62
     7
370
    15
100
AcDbLine
 10
84.534088033
 20
168.4837848998
 30
0.0
 11
79.1118982012
 21
168.43425344
 31
0.0
  0
LINE
  5
12C
330
1F
100
AcDbEntity
  8
0
  6
Continuous
 62
     7
370
    15
100
AcDbLine
 10
86.0703381474
 20
172.2922758318
 30
0.0
 11
79.1118982012
 21
172.3500848866
 31
0.0
  0
LINE
  5
12D
330
1F
100
AcDbEntity
  8
0
  6
Continuous
 62
     7
370
    15
100
AcDbLine
 10
86.0703381474
 20
172.2922758318
 30
0.0
 11
86.0297026808
 21
169.9659587002
 31
0.0
  0
LINE
  5
12E
330
1F
100
AcDbEntity
  8
0
  6
Continuous
 62
     7
370
    15
100
AcDbLine
 10
72.1447559769
 20
172.8140474415
 30
0.0
 11
79.1118982012
 21
172.8719310022
 31
0.0
  0
LINE
  5
12F
330
1F
100
AcDbEntity
  8
0
  6
Continuous
 62
     7
370
    15
100
AcDbLine
 10
79.1118982012
 20
172.3500848866
 30
0.0
 11
79.1118982012
 21
172.8719310022
 31
0.0
  0
ELLIPSE
  5
130
330
1F
100
AcDbEntity
  8
0
  6
Continuous
 62
     7
370
    15
100
AcDbEllipse
 10
72.1535293432
 20
172.3116702919
 30
0.0
 11
-0.008769050530162305
 21
0.5029445082273298
 31
0.0
210
0.0
220
0.0
230
1.0
 40
0.0008263858
 41
0.0473615021757182
 42
1.609355691904516
  0
LINE
  5
131
330
1F
100
AcDbEntity
  8
0
  6
Continuous
 62
     7
370
    15
100
AcDbLine
 10
79.1118982012
 20
172.8719310022
 30
0.0
 11
86.0790255244
 21
172.8140474415
 31
0.0
  0
ELLIPSE
  5
132
330
1F
100
AcDbEntity
  8
0
  6
Continuous
 62
     7
370
    15
100
AcDbEllipse
 10
86.0702537706
 20
172.3116702919
 30
0.0
 11
0.008769050530176514
 21
0.5029445082273298
 31
0.0
210
0.0
220
0.0
230
1.0
 40
0.0008263858
 41
4.673829615275146
 42
6.235823805090416
  0
LINE
  5
133
330
1F
100
AcDbEntity
  8
0
  6
Continuous
 62
     7
370
    15
100
AcDbLine
 10
86.1292424376
 20
172.844222293
 30
0.0
 11
79.1118982012
 21
172.9050935364
 31
0.0
  0
LINE
  5
134
330
1F
100
AcDbEntity
  8
0
  6
Continuous
 62
     7
370
    15
100
AcDbLine
 10
86.1292275365
 20
172.8437678076
 30
0.0
 11
86.0790255244
 21
172.8442073918
 31
0.0
  0
LINE
  5
135
330
1F
100
AcDbEntity
  8
0
  6
Continuous
 62
     7
370
    15
100
AcDbLine
 10
79.1118982012
 20
172.8719310022
 30
0.0
 11
79.1118982012
 21
172.9050935364
 31
0.0
  0
LINE
  5
136
330
1F
100
AcDbEntity
  8
0
  6
Continuous
 62
     7
370
    15
100
AcDbLine
 10
86.0790255244
 20
172.8442073918
 30
0.0
 11
86.0790255244
 21
172.8140474415
 31
0.0
  0
LINE
  5
137
330
1F
100
AcDbEntity
  8
0
  6
Continuous
 62
     7
370
    15
100
AcDbLine
 10
72.0945539649
 20
172.8437678076
 30
0.0
 11
72.1447559769
 21
172.8442073918
 31
0.0
  0
LINE
  5
138
330
1F
100
AcDbEntity
  8
0
  6
Continuous
 62
     7
370
    15
100
AcDbLine
 10
72.0945390637
 20
172.844222293
 30
0.0
 11
79.1118982012
 21
172.9050935364
 31
0.0
  0
LINE
  5
139
330
1F
100
AcDbEntity
  8
0
  6
Continuous
 62
     7
370
    15
100
AcDbLine
 10
72.1447559769
 20
172.8140474415
 30
0.0
 11
72.1447559769
 21
172.8442073918
 31
0.0
  0
LINE
  5
13A
330
1F
100
AcDbEntity
  8
0
  6
Continuous
 62
     7
370
    15
100
AcDbLine
 10
73.3228268798
 20
168.5324818946
 30
0.0
 11
73.3112635787
 21
168.5325787521
 31
0.0
  0
LINE
  5
13B
330
1F
100
AcDbEntity
  8
0
  6
Continuous
 62
     7
370
    15
100
AcDbLine
 10
84.9009546216
 20
168.5324818946
 30
0.0
 11
84.9125179227
 21
168.5325787521
 31
0.0
  0
LINE
  5
13C
330
1F
100
AcDbEntity
  8
0
  6
Continuous
 62
     7
370
    15
100
AcDbLine
 10
79.1118982012
 20
172.9050935364
 30
0.0
 11
79.1118982012
 21
172.9975775934
 31
0.0
  0
LINE
  5
13D
330
1F
100
AcDbEntity
  8
0
  6
Continuous
 62
     7
370
    15
100
AcDbLine
 10
79.3428512986
 20
176.5412897921
 30
0.0
 11
79.1118982012
 21
176.5433983064
 31
0.0
  0
LINE
  5
13E
330
1F
100
AcDbEntity
  8
0
  6
Continuous
 62
     7
370
    15
100
AcDbLine
 10
79.1118982012
 20
176.5412897921
 30
0.0
 11
79.1118982012
 21
176.5433983064
 31
0.0
  0
LINE
  5
13F
330
1F
100
AcDbEntity
  8
0
  6
Continuous
 62
     7
370
    15
100
AcDbLine
 10
78.8809302027
 20
176.5412897921
 30
0.0
 11
79.1118982012
 21
176.5433983064
 31
0.0
  0
LINE
  5
140
330
1F
100
AcDbEntity
  8
0
  6
Continuous
 62
     7
370
    15
100
AcDbLine
 10
73.6896934683
 20
157.2788492895
 30
0.0
 11
79.1118982012
 21
157.2292507745
 31
0.0
  0
ELLIPSE
  5
141
330
1F
100
AcDbEntity
  8
0
  6
Continuous
 62
     7
370
    15
100
AcDbEllipse
 10
73.7028567763
 20
158.7866237824
 30
0.0
 11
1.460969710659484
 21
-0.3780211663145109
 31
0.0
210
0.0
220
0.0
230
1.0
 40
0.9991196347
 41
3.412026243482998
 42
4.956642631498002
  0
LINE
  5
142
330
1F
100
AcDbEntity
  8
0
  6
Continuous
 62
     7
370
    15
100
AcDbLine
 10
72.1940937216
 20
158.7609560347
 30
0.0
 11
72.1534582551
 21
161.0871316052
 31
0.0
  0
LINE
  5
143
330
1F
100
AcDbEntity
  8
0
  6
Continuous
 62
     7
370
    15
100
AcDbLine
 10
79.1118982012
 20
161.1448363519
 30
0.0
 11
72.1534582551
 21
161.0871316052
 31
0.0
  0
LINE
  5
144
330
1F
100
AcDbEntity
  8
0
  6
Continuous
 62
     7
370
    15
100
AcDbLine
 10
79.1118982012
 20
157.2292507745
 30
0.0
 11
79.1118982012
 21
161.1448363519
 31
0.0
  0
ELLIPSE
  5
145
330
1F
100
AcDbEntity
  8
0
  6
Continuous
 62
     7
370
    15
100
AcDbEllipse
 10
84.5209263375
 20
158.7866237824
 30
0.0
 11
1.460969710659399
 21
0.3780211663148521
 31
0.0
210
0.0
220
0.0
230
1.0
 40
0.9991196347
 41
4.468135329271176
 42
6.012751717286173
  0
LINE
  5
146
330
1F
100
AcDbEntity
  8
0
  6
Continuous
 62
     7
370
    15
100
AcDbLine
 10
84.534088033
 20
157.2788492895
 30
0.0
 11
79.1118982012
 21
157.2292507745
 31
0.0
  0
LINE
  5
147
330
1F
100
AcDbEntity
  8
0
  6
Continuous
 62
     7
370
    15
100
AcDbLine
 10
86.0703381474
 20
161.0871316052
 30
0.0
 11
79.1118982012
 21
161.1448363519
 31
0.0
  0
LINE
  5
148
330
1F
100
AcDbEntity
  8
0
  6
Continuous
 62
     7
370
    15
100
AcDbLine
 10
86.0703381474
 20
161.0871316052
 30
0.0
 11
86.0297026808
 21
158.7609560347
 31
0.0
  0
LINE
  5
149
330
1F
100
AcDbEntity
  8
0
  6
Continuous
 62
     7
370
    15
100
AcDbLine
 10
72.1447559769
 20
161.6096482731
 30
0.0
 11
79.1118982012
 21
161.6674349762
 31
0.0
  0
LINE
  5
14A
330
1F
100
AcDbEntity
  8
0
  6
Continuous
 62
     7
370
    15
100
AcDbLine
 10
79.1118982012
 20
161.1448363519
 30
0.0
 11
79.1118982012
 21
161.6674349762
 31
0.0
  0
ELLIPSE
  5
14B
330
1F
100
AcDbEntity
  8
0
  6
Continuous
 62
     7
370
    15
100
AcDbEllipse
 10
72.1535293432
 20
161.1073085551
 30
0.0
 11
-0.008768390941739312
 21
0.5029445786982194
 31
0.0
210
0.0
220
0.0
230
1.0
 40
0.000853606
 41
0.048922763750336
 42
1.610916953500962
  0
LINE
  5
14C
330
1F
100
AcDbEntity
  8
0
  6
Continuous
 62
     7
370
    15
100
AcDbLine
 10
79.1118982012
 20
161.6674349762
 30
0.0
 11
86.0790255244
 21
161.6096482731
 31
0.0
  0
ELLIPSE
  5
14D
330
1F
100
AcDbEntity
  8
0
  6
Continuous
 62
     7
370
    15
100
AcDbEllipse
 10
86.0702537706
 20
161.1073085551
 30
0.0
 11
0.008768390941739312
 21
0.502944578698191
 31
0.0
210
0.0
220
0.0
230
1.0
 40
0.000853606
 41
4.672268353676041
 42
6.234262543479378
  0
LINE
  5
14E
330
1F
100
AcDbEntity
  8
0
  6
Continuous
 62
     7
370
    15
100
AcDbLine
 10
72.0925572093
 20
161.6403446651
 30
0.0
 11
72.1447559769
 21
161.6407991505
 31
0.0
  0
LINE
  5
14F
330
1F
100
AcDbEntity
  8
0
  6
Continuous
 62
     7
370
    15
100
AcDbLine
 10
72.0925572093
 20
161.6408140517
 30
0.0
 11
79.1118982012
 21
161.7016852952
 31
0.0
  0
LINE
  5
150
330
1F
100
AcDbEntity
  8
0
  6
Continuous
 62
     7
370
    15
100
AcDbLine
 10
79.1118982012
 20
161.6674349762
 30
0.0
 11
79.1118982012
 21
161.7016852952
 31
0.0
  0
LINE
  5
151
330
1F
100
AcDbEntity
  8
0
  6
Continuous
 62
     7
370
    15
100
AcDbLine
 10
72.1447559769
 20
161.6096482731
 30
0.0
 11
72.1447559769
 21
161.6407991505
 31
0.0
  0
LINE
  5
152
330
1F
100
AcDbEntity
  8
0
  6
Continuous
 62
     7
370
    15
100
AcDbLine
 10
86.1312242921
 20
161.6408140517
 30
0.0
 11
79.1118982012
 21
161.7016852952
 31
0.0
  0
LINE
  5
153
330
1F
100
AcDbEntity
  8
0
  6
Continuous
 62
     7
370
    15
100
AcDbLine
 10
86.1312242921
 20
161.6403446651
 30
0.0
 11
86.0790255244
 21
161.6407991505
 31
0.0
  0
LINE
  5
154
330
1F
100
AcDbEntity
  8
0
  6
Continuous
 62
     7
370
    15
100
AcDbLine
 10
86.0790255244
 20
161.6407991505
 30
0.0
 11
86.0790255244
 21
161.6096482731
 31
0.0
  0
LINE
  5
155
330
1F
100
AcDbEntity
  8
0
  6
Continuous
 62
     7
370
    15
100
AcDbLine
 10
84.9068554814
 20
157.329096005
 30
0.0
 11
85.2390172656
 21
157.3320017315
 31
0.0
  0
LINE
  5
156
330
1F
100
AcDbEntity
  8
0
  6
Continuous
 62
     7
370
    15
100
AcDbLine
 10
73.3169260199
 20
157.329096005
 30
0.0
 11
72.9847642357
 21
157.3320017315
 31
0.0
  0
LINE
  5
157
330
1F
100
AcDbEntity
  8
0
  6
Continuous
 62
     7
370
    15
100
AcDbLine
 10
79.1118982012
 20
161.7016852952
 30
0.0
 11
79.1118982012
 21
161.770632968
 31
0.0
  0
LINE
  5
158
330
1F
100
AcDbEntity
  8
0
  6
Continuous
 62
     7
370
    15
100
AcDbLine
 10
79.1118982012
 20
157.1757854081
 30
0.0
 11
79.1118982012
 21
157.2292507745
 31
0.0
  0
LINE
  5
159
330
1F
100
AcDbEntity
  8
0
  6
Continuous
 62
     7
370
    15
100
AcDbLine
 10
85.9526934798
 20
165.2974547005
 30
0.0
 11
79.1118982012
 21
165.3600023246
 31
0.0
  0
LINE
  5
15A
330
1F
100
AcDbEntity
  8
0
  6
Continuous
 62
     7
370
    15
100
AcDbLine
 10
85.9526934798
 20
165.2237908102
 30
0.0
 11
85.9526934798
 21
165.2974547005
 31
0.0
  0
LINE
  5
15B
330
1F
100
AcDbEntity
  8
0
  6
Continuous
 62
     7
370
    15
100
AcDbLine
 10
79.1118982012
 20
165.2237908102
 30
0.0
 11
79.1118982012
 21
165.3600023246
 31
0.0
  0
LINE
  5
15C
330
1F
100
AcDbEntity
  8
0
  6
Continuous
 62
     7
370
    15
100
AcDbLine
 10
72.2710880215
 20
165.2237908102
 30
0.0
 11
72.2710880215
 21
165.2974547005
 31
0.0
  0
LINE
  5
15D
330
1F
100
AcDbEntity
  8
0
  6
Continuous
 62
     7
370
    15
100
AcDbLine
 10
72.2710880215
 20
165.2974547005
 30
0.0
 11
79.1118982012
 21
165.3600023246
 31
0.0
  0
LINE
  5
15E
330
1F
100
AcDbEntity
  8
0
  6
Continuous
 62
     7
370
    15
100
AcDbLine
 10
84.9748345788
 20
84.1012890569
 30
0.0
 11
72.9752870972
 21
84.1012890569
 31
0.0
  0
LINE
  5
15F
330
1F
100
AcDbEntity
  8
0
  6
Continuous
 62
     7
370
    15
100
AcDbLine
 10
72.9752870972
 20
84.1012890569
 30
0.0
 11
72.9752870972
 21
86.0012886233
 31
0.0
  0
LINE
  5
160
330
1F
100
AcDbEntity
  8
0
  6
Continuous
 62
     7
370
    15
100
AcDbLine
 10
84.9748345788
 20
86.0012886233
 30
0.0
 11
84.9748345788
 21
84.1012890569
 31
0.0
  0
LINE
  5
161
330
1F
100
AcDbEntity
  8
0
  6
Continuous
 62
     7
370
    15
100
AcDbLine
 10
75.4751953061
 20
85.5864496089
 30
0.0
 11
75.460309046
 21
85.5864496089
 31
0.0
  0
LINE
  5
162
330
1F
100
AcDbEntity
  8
0
  6
Continuous
 62
     7
370
    15
100
AcDbLine
 10
75.4751953061
 20
85.4576998509
 30
0.0
 11
75.4751953061
 21
85.5864496089
 31
0.0
  0
LINE
  5
163
330
1F
100
AcDbEntity
  8
0
  6
Continuous
 62
     7
370
    15
100
AcDbLine
 10
82.4749263699
 20
85.4576998509
 30
0.0
 11
75.4751953061
 21
85.4576998509
 31
0.0
  0
LINE
  5
164
330
1F
100
AcDbEntity
  8
0
  6
Continuous
 62
     7
370
    15
100
AcDbLine
 10
82.4749263699
 20
85.5864496089
 30
0.0
 11
82.4749263699
 21
85.4576998509
 31
0.0
  0
LINE
  5
165
330
1F
100
AcDbEntity
  8
0
  6
Continuous
 62
     7
370
    15
100
AcDbLine
 10
82.4898126299
 20
85.5864496089
 30
0.0
 11
82.4749263699
 21
85.5864496089
 31
0.0
  0
LINE
  5
166
330
1F
100
AcDbEntity
  8
0
  6
Continuous
 62
     7
370
    15
100
AcDbLine
 10
84.993163007
 20
86.0012886233
 30
0.0
 11
84.993163007
 21
84.1012890569
 31
0.0
  0
LINE
  5
167
330
1F
100
AcDbEntity
  8
0
  6
Continuous
 62
     7
370
    15
100
AcDbLine
 10
84.9748345788
 20
84.1012890569
 30
0.0
 11
84.993163007
 21
84.1012890569
 31
0.0
  0
LINE
  5
168
330
1F
100
AcDbEntity
  8
0
  6
Continuous
 62
     7
370
    15
100
AcDbLine
 10
84.3879523451
 20
83.5012886792
 30
0.0
 11
84.3800994332
 21
83.5012886792
 31
0.0
  0
ELLIPSE
  5
169
330
1F
100
AcDbEntity
  8
0
  6
Continuous
 62
     7
370
    15
100
AcDbEllipse
 10
84.3800934011
 20
84.1012888913
 30
0.0
 11
0.0
 21
0.6000000000000227
 31
0.0
210
0.0
220
0.0
230
1.0
 40
0.9912353876
 41
3.141592653589793
 42
4.712388980384704
  0
ELLIPSE
  5
16A
330
1F
100
AcDbEntity
  8
0
  6
Continuous
 62
     7
370
    15
100
AcDbEllipse
 10
84.3879472831
 20
84.1012888913
 30
0.0
 11
0.6052130751375273
 21
0.0
 31
0.0
210
0.0
220
0.0
230
1.0
 40
0.9913863805
 41
4.712388980384704
 42
6.283185307179586
  0
ELLIPSE
  5
16B
330
1F
100
AcDbEntity
  8
0
  6
Continuous
 62
     7
370
    15
100
AcDbEllipse
 10
73.5805046321
 20
84.1012888913
 30
0.0
 11
0.6052130751375273
 21
0.0
 31
0.0
210
0.0
220
0.0
230
1.0
 40
0.9913863805
 41
3.141592653589793
 42
4.712388980384704
  0
LINE
  5
16C
330
1F
100
AcDbEntity
  8
0
  6
Continuous
 62
     7
370
    15
100
AcDbLine
 10
84.3800994332
 20
83.5012886792
 30
0.0
 11
73.5804977591
 21
83.5012886792
 31
0.0
  0
ARC
  5
16D
330
1F
100
AcDbEntity
  8
0
  6
Continuous
 62
     7
370
    15
100
AcDbCircle
 10
85.3910482604
 20
85.6113759872
 30
0.0
 40
2.901342707686607
100
AcDbArc
 50
178.51735593
 51
180.4922527228
  0
ELLIPSE
  5
16E
330
1F
100
AcDbEntity
  8
0
  6
Continuous
 62
     7
370
    15
100
AcDbEllipse
 10
82.490599513
 20
86.6864912944
 30
0.0
 11
-0.5104933347472667
 21
0.8599637628265668
 31
0.0
210
0.0
220
0.0
230
1.0
 40
0.9999045857
 41
2.605910389410011
 42
3.421875760649032
  0
LINE
  5
16F
330
1F
100
AcDbEntity
  8
0
  6
Continuous
 62
     7
370
    15
100
AcDbLine
 10
82.4757906373
 20
85.6864457137
 30
0.0
 11
82.4906768973
 21
85.6864457137
 31
0.0
  0
ARC
  5
170
330
1F
100
AcDbEntity
  8
0
  6
Continuous
 62
     7
370
    15
100
AcDbCircle
 10
85.4615599914
 20
85.6106378915
 30
0.0
 40
2.98673156848764
100
AcDbArc
 50
178.5455891629
 51
180.4640194899
  0
LINE
  5
171
330
1F
100
AcDbEntity
  8
0
  6
Continuous
 62
     7
370
    15
100
AcDbLine
 10
75.5188706095
 20
85.5012885413
 30
0.0
 11
82.4314298804
 21
85.5012885413
 31
0.0
  0
ELLIPSE
  5
172
330
1F
100
AcDbEntity
  8
0
  6
Continuous
 62
     7
370
    15
100
AcDbEllipse
 10
82.4758024796
 20
85.4576999018
 30
0.0
 11
0.09999904807210667
 21
-0.09999904807210667
 31
0.0
210
0.0
220
0.0
230
1.0
 40
0.0043633508
 41
4.256998946786438
 42
4.708025657254725
  0
ELLIPSE
  5
173
330
1F
100
AcDbEntity
  8
0
  6
Continuous
 62
     7
370
    15
100
AcDbEllipse
 10
75.4760690181
 20
85.4576999018
 30
0.0
 11
0.09999904807210667
 21
0.09999904807210667
 31
0.0
210
0.0
220
0.0
230
1.0
 40
0.0043633508
 41
1.124132736800218
 42
1.575159649924862
  0
LINE
  5
174
330
1F
100
AcDbEntity
  8
0
  6
Continuous
 62
     7
370
    15
100
AcDbLine
 10
82.3758038457
 20
85.5864496089
 30
0.0
 11
82.4749263699
 21
85.5864496089
 31
0.0
  0
LINE
  5
175
330
1F
100
AcDbEntity
  8
0
  6
Continuous
 62
     7
370
    15
100
AcDbLine
 10
82.4314298804
 20
85.5012885413
 30
0.0
 11
82.4314298804
 21
85.5115787245
 31
0.0
  0
ELLIPSE
  5
176
330
1F
100
AcDbEntity
  8
0
  6
Continuous
 62
     7
370
    15
100
AcDbEllipse
 10
82.4758024796
 20
85.5645930338
 30
0.0
 11
0.09999892537304333
 21
0.0007870971134167348
 31
0.0
210
0.0
220
0.0
230
1.0
 40
0.5889987566
 41
3.128229998511746
 42
4.247999513176618
  0
ELLIPSE
  5
177
330
1F
100
AcDbEntity
  8
0
  6
Continuous
 62
     7
370
    15
100
AcDbEllipse
 10
75.4763976834
 20
85.586778086
 30
0.0
 11
0.0391963436983076
 21
0.09397405670505066
 31
0.0
210
0.0
220
0.0
230
1.0
 40
0.9790599053
 41
5.100084357943333
 42
6.670880684738047
  0
LINE
  5
178
330
1F
100
AcDbEntity
  8
0
  6
Continuous
 62
     7
370
    15
100
AcDbLine
 10
75.4779073174
 20
85.6882860071
 30
0.0
 11
82.4776383813
 21
85.6882860071
 31
0.0
  0
ELLIPSE
  5
179
330
1F
100
AcDbEntity
  8
0
  6
Continuous
 62
     7
370
    15
100
AcDbEllipse
 10
82.4761311449
 20
85.586778086
 30
0.0
 11
0.0391963436983076
 21
0.09397405670505066
 31
0.0
210
0.0
220
0.0
230
1.0
 40
0.9790599053
 41
0.3876953775585075
 42
1.173093540956099
  0
LINE
  5
17A
330
1F
100
AcDbEntity
  8
0
  6
Continuous
 62
     7
370
    15
100
AcDbLine
 10
82.4314298804
 20
85.5115787245
 30
0.0
 11
75.5188706095
 21
85.5115787245
 31
0.0
  0
ELLIPSE
  5
17B
330
1F
100
AcDbEntity
  8
0
  6
Continuous
 62
     7
370
    15
100
AcDbEllipse
 10
75.4760690181
 20
85.5645930338
 30
0.0
 11
0.09999892537302912
 21
0.0007870971134167347
 31
0.0
210
0.0
220
0.0
230
1.0
 40
0.5889987566
 41
5.150053137436633
 42
6.269822652101563
  0
LINE
  5
17C
330
1F
100
AcDbEntity
  8
0
  6
Continuous
 62
     7
370
    15
100
AcDbLine
 10
75.5760612662
 20
85.5645933307
 30
0.0
 11
75.5763890917
 21
85.5867783657
 31
0.0
  0
LINE
  5
17D
330
1F
100
AcDbEntity
  8
0
  6
Continuous
 62
     7
370
    15
100
AcDbLine
 10
75.5188706095
 20
85.5115787245
 30
0.0
 11
75.5188706095
 21
85.5012885413
 31
0.0
  0
LINE
  5
17E
330
1F
100
AcDbEntity
  8
0
  6
Continuous
 62
     7
370
    15
100
AcDbLine
 10
75.5760612662
 20
85.5864496089
 30
0.0
 11
75.4751953061
 21
85.5864496089
 31
0.0
  0
ARC
  5
17F
330
1F
100
AcDbEntity
  8
0
  6
Continuous
 62
     7
370
    15
100
AcDbCircle
 10
78.3764309365
 20
85.6113759872
 30
0.0
 40
2.901342707686607
100
AcDbArc
 50
178.51735593
 51
180.4922527228
  0
ARC
  5
180
330
1F
100
AcDbEntity
  8
0
  6
Continuous
 62
     7
370
    15
100
AcDbCircle
 10
75.4760556627
 20
85.5864401098
 30
0.0
 40
0.1000056039551497
100
AcDbArc
 50
0.0054422453
 51
89.9977594411
  0
LINE
  5
181
330
1F
100
AcDbEntity
  8
0
  6
Continuous
 62
     7
370
    15
100
AcDbLine
 10
75.5760612662
 20
85.5864496089
 30
0.0
 11
75.5760612662
 21
85.5645933307
 31
0.0
  0
LINE
  5
182
330
1F
100
AcDbEntity
  8
0
  6
Continuous
 62
     7
370
    15
100
AcDbLine
 10
75.4611733134
 20
85.6864457137
 30
0.0
 11
75.4760595734
 21
85.6864457137
 31
0.0
  0
ARC
  5
183
330
1F
100
AcDbEntity
  8
0
  6
Continuous
 62
     7
370
    15
100
AcDbCircle
 10
78.4469426676
 20
85.6106378915
 30
0.0
 40
2.986731568487626
100
AcDbArc
 50
178.5455891629
 51
180.4640194899
  0
ELLIPSE
  5
184
330
1F
100
AcDbEntity
  8
0
  6
Continuous
 62
     7
370
    15
100
AcDbEllipse
 10
82.490599513
 20
86.7013269696
 30
0.0
 11
-0.5257570238193239
 21
0.8507072210236116
 31
0.0
210
0.0
220
0.0
230
1.0
 40
0.999914862
 41
2.588063985797425
 42
3.383446820343091
  0
LINE
  5
185
330
1F
100
AcDbEntity
  8
0
  6
Continuous
 62
     7
370
    15
100
AcDbLine
 10
82.4906768973
 20
85.6864457137
 30
0.0
 11
82.4906768973
 21
85.7012891329
 31
0.0
  0
LINE
  5
186
330
1F
100
AcDbEntity
  8
0
  6
Continuous
 62
     7
370
    15
100
AcDbLine
 10
75.4760595734
 20
85.6864457137
 30
0.0
 11
75.4779073174
 21
85.6882860071
 31
0.0
  0
LINE
  5
187
330
1F
100
AcDbEntity
  8
0
  6
Continuous
 62
     7
370
    15
100
AcDbLine
 10
75.4908713276
 20
85.7012891329
 30
0.0
 11
75.4611733134
 21
85.6864457137
 31
0.0
  0
LINE
  5
188
330
1F
100
AcDbEntity
  8
0
  6
Continuous
 62
     7
370
    15
100
AcDbLine
 10
75.4908713276
 20
85.7012891329
 30
0.0
 11
82.4906768973
 21
85.7012891329
 31
0.0
  0
LINE
  5
189
330
1F
100
AcDbEntity
  8
0
  6
Continuous
 62
     7
370
    15
100
AcDbLine
 10
82.4776383813
 20
85.6882860071
 30
0.0
 11
82.4757906373
 21
85.6864457137
 31
0.0
  0
LINE
  5
18A
330
1F
100
AcDbEntity
  8
0
  6
Continuous
 62
     7
370
    15
100
AcDbLine
 10
75.5763890917
 20
85.5867783657
 30
0.0
 11
75.5760612662
 21
85.5864496089
 31
0.0
  0
ELLIPSE
  5
18B
330
1F
100
AcDbEntity
  8
0
  6
Continuous
 62
     7
370
    15
100
AcDbEllipse
 10
75.4909422054
 20
86.7013269696
 30
0.0
 11
0.5257570238193239
 21
0.8507072210236116
 31
0.0
210
0.0
220
0.0
230
1.0
 40
0.999914862
 41
2.899738486836509
 42
3.695121321382203
  0
LINE
  5
18C
330
1F
100
AcDbEntity
  8
0
  6
Continuous
 62
     7
370
    15
100
AcDbLine
 10
87.0592984135
 20
109.6422881938
 30
0.0
 11
87.0592984135
 21
152.9002920843
 31
0.0
  0
LINE
  5
18D
330
1F
100
AcDbEntity
  8
0
  6
Continuous
 62
     7
370
    15
100
AcDbLine
 10
87.0592984135
 20
152.9002920843
 30
0.0
 11
71.164497989
 21
152.9002920843
 31
0.0
  0
LINE
  5
18E
330
1F
100
AcDbEntity
  8
0
  6
Continuous
 62
     7
370
    15
100
AcDbLine
 10
71.164497989
 20
152.9002920843
 30
0.0
 11
71.164497989
 21
109.6422881938
 31
0.0
  0
LINE
  5
18F
330
1F
100
AcDbEntity
  8
0
  6
Continuous
 62
     7
370
    15
100
AcDbLine
 10
71.164497989
 20
109.6422881938
 30
0.0
 11
87.0592984135
 21
109.6422881938
 31
0.0
  0
ARC
  5
190
330
1F
100
AcDbEntity
  8
0
  6
Continuous
 62
     7
370
    15
100
AcDbCircle
 10
87.5622915569
 20
109.1392888913
 30
0.0
 40
0.2012000000000143
100
AcDbArc
 50
270.0
 51
0.0
  0
LINE
  5
191
330
1F
100
AcDbEntity
  8
0
  6
Continuous
 62
     7
370
    15
100
AcDbLine
 10
70.6614943917
 20
108.9380891181
 30
0.0
 11
87.5622871096
 21
108.9380891181
 31
0.0
  0
ARC
  5
192
330
1F
100
AcDbEntity
  8
0
  6
Continuous
 62
     7
370
    15
100
AcDbCircle
 10
70.6614915569
 20
109.1392888913
 30
0.0
 40
0.2012000000000143
100
AcDbArc
 50
180.0
 51
270.0
  0
LINE
  5
193
330
1F
100
AcDbEntity
  8
0
  6
Continuous
 62
     7
370
    15
100
AcDbLine
 10
70.4602989133
 20
153.403288231
 30
0.0
 11
70.4602989133
 21
109.1392883218
 31
0.0
  0
ARC
  5
194
330
1F
100
AcDbEntity
  8
0
  6
Continuous
 62
     7
370
    15
100
AcDbCircle
 10
70.6614915569
 20
153.4032888913
 30
0.0
 40
0.2012000000000143
100
AcDbArc
 50
90.0
 51
180.0
  0
LINE
  5
195
330
1F
100
AcDbEntity
  8
0
  6
Continuous
 62
     7
370
    15
100
AcDbLine
 10
87.5622871096
 20
153.60449116
 30
0.0
 11
70.6614943917
 21
153.60449116
 31
0.0
  0
ARC
  5
196
330
1F
100
AcDbEntity
  8
0
  6
Continuous
 62
     7
370
    15
100
AcDbCircle
 10
87.5622915569
 20
153.4032888913
 30
0.0
 40
0.2012000000000143
100
AcDbArc
 50
0.0
 51
90.0
  0
LINE
  5
197
330
1F
100
AcDbEntity
  8
0
  6
Continuous
 62
     7
370
    15
100
AcDbLine
 10
87.7634974892
 20
109.1392883218
 30
0.0
 11
87.7634974892
 21
153.403288231
 31
0.0
  0
LINE
  5
198
330
1F
100
AcDbEntity
  8
0
  6
Continuous
 62
     7
370
    15
100
AcDbLine
 10
70.1584907944
 20
109.1392883218
 30
0.0
 11
70.1584907944
 21
153.403288231
 31
0.0
  0
LINE
  5
199
330
1F
100
AcDbEntity
  8
0
  6
Continuous
 62
     7
370
    15
100
AcDbLine
 10
70.1584907944
 20
153.403288231
 30
0.0
 11
70.4602989133
 21
153.403288231
 31
0.0
  0
LINE
  5
19A
330
1F
100
AcDbEntity
  8
0
  6
Continuous
 62
     7
370
    15
100
AcDbLine
 10
70.1584907944
 20
109.1392883218
 30
0.0
 11
70.4602989133
 21
109.1392883218
 31
0.0
  0
LINE
  5
19B
330
1F
100
AcDbEntity
  8
0
  6
Continuous
 62
     7
370
    15
100
AcDbLine
 10
87.7634974892
 20
109.1392883218
 30
0.0
 11
88.0652907069
 21
109.1392883218
 31
0.0
  0
ARC
  5
19C
330
1F
100
AcDbEntity
  8
0
  6
Continuous
 62
     7
370
    15
100
AcDbCircle
 10
87.5622915569
 20
109.1392888913
 30
0.0
 40
0.5030000000000001
100
AcDbArc
 50
270.0
 51
0.0
  0
LINE
  5
19D
330
1F
100
AcDbEntity
  8
0
  6
Continuous
 62
     7
370
    15
100
AcDbLine
 10
87.5622871096
 20
108.9380891181
 30
0.0
 11
87.5622871096
 21
108.6362884498
 31
0.0
  0
ARC
  5
19E
330
1F
100
AcDbEntity
  8
0
  6
Continuous
 62
     7
370
    15
100
AcDbCircle
 10
70.6614915569
 20
153.4032888913
 30
0.0
 40
0.5030000000000143
100
AcDbArc
 50
90.0
 51
180.0
  0
LINE
  5
19F
330
1F
100
AcDbEntity
  8
0
  6
Continuous
 62
     7
370
    15
100
AcDbLine
 10
70.6614943917
 20
153.9062918282
 30
0.0
 11
70.6614943917
 21
153.60449116
 31
0.0
  0
LINE
  5
1A0
330
1F
100
AcDbEntity
  8
0
  6
Continuous
 62
     7
370
    15
100
AcDbLine
 10
87.7634974892
 20
153.403288231
 30
0.0
 11
88.0652907069
 21
153.403288231
 31
0.0
  0
LINE
  5
1A1
330
1F
100
AcDbEntity
  8
0
  6
Continuous
 62
     7
370
    15
100
AcDbLine
 10
88.0652907069
 20
153.403288231
 30
0.0
 11
88.0652907069
 21
109.1392883218
 31
0.0
  0
LINE
  5
1A2
330
1F
100
AcDbEntity
  8
0
  6
Continuous
 62
     7
370
    15
100
AcDbLine
 10
70.6614943917
 20
153.9062918282
 30
0.0
 11
87.5622871096
 21
153.9062918282
 31
0.0
  0
LINE
  5
1A3
330
1F
100
AcDbEntity
  8
0
  6
Continuous
 62
     7
370
    15
100
AcDbLine
 10
87.5622871096
 20
153.9062918282
 30
0.0
 11
87.5622871096
 21
153.60449116
 31
0.0
  0
ARC
  5
1A4
330
1F
100
AcDbEntity
  8
0
  6
Continuous
 62
     7
370
    15
100
AcDbCircle
 10
87.5622915569
 20
153.4032888913
 30
0.0
 40
0.5030000000000001
100
AcDbArc
 50
0.0
 51
90.0
  0
LINE
  5
1A5
330
1F
100
AcDbEntity
  8
0
  6
Continuous
 62
     7
370
    15
100
AcDbLine
 10
87.5622871096
 20
108.6362884498
 30
0.0
 11
70.6614943917
 21
108.6362884498
 31
0.0
  0
LINE
  5
1A6
330
1F
100
AcDbEntity
  8
0
  6
Continuous
 62
     7
370
    15
100
AcDbLine
 10
70.6614943917
 20
108.9380891181
 30
0.0
 11
70.6614943917
 21
108.6362884498
 31
0.0
  0
ARC
  5
1A7
330
1F
100
AcDbEntity
  8
0
  6
Continuous
 62
     7
370
    15
100
AcDbCircle
 10
70.6614915569
 20
109.1392888913
 30
0.0
 40
0.5030000000000143
100
AcDbArc
 50
180.0
 51
270.0
  0
LINE
  5
1A8
330
1F
100
AcDbEntity
  8
0
  6
Continuous
 62
     7
370
    15
100
AcDbLine
 10
74.484297889
 20
129.7622905231
 30
0.0
 11
74.484297889
 21
132.7802897549
 31
0.0
  0
LINE
  5
1A9
330
1F
100
AcDbEntity
  8
0
  6
Continuous
 62
     7
370
    15
100
AcDbLine
 10
74.484297889
 20
132.7802897549
 30
0.0
 11
72.1704902823
 21
132.7802897549
 31
0.0
  0
LINE
  5
1AA
330
1F
100
AcDbEntity
  8
0
  6
Continuous
 62
     7
370
    15
100
AcDbLine
 10
72.1704902823
 20
132.7802897549
 30
0.0
 11
72.1704902823
 21
129.7622905231
 31
0.0
  0
LINE
  5
1AB
330
1F
100
AcDbEntity
  8
0
  6
Continuous
 62
     7
370
    15
100
AcDbLine
 10
74.484297889
 20
137.3072886027
 30
0.0
 11
74.484297889
 21
140.3252915598
 31
0.0
  0
LINE
  5
1AC
330
1F
100
AcDbEntity
  8
0
  6
Continuous
 62
     7
370
    15
100
AcDbLine
 10
74.484297889
 20
140.3252915598
 30
0.0
 11
72.1704902823
 21
140.3252915598
 31
0.0
  0
LINE
  5
1AD
330
1F
100
AcDbEntity
  8
0
  6
Continuous
 62
     7
370
    15
100
AcDbLine
 10
72.1704902823
 20
140.3252915598
 30
0.0
 11
72.1704902823
 21
137.3072886027
 31
0.0
  0
LINE
  5
1AE
330
1F
100
AcDbEntity
  8
0
  6
Continuous
 62
     7
370
    15
100
AcDbLine
 10
72.1704902823
 20
137.3072886027
 30
0.0
 11
74.484297889
 21
137.3072886027
 31
0.0
  0
LINE
  5
1AF
330
1F
100
AcDbEntity
  8
0
  6
Continuous
 62
     7
370
    15
100
AcDbLine
 10
72.1704902823
 20
125.2352879501
 30
0.0
 11
72.1704902823
 21
122.2172887183
 31
0.0
  0
LINE
  5
1B0
330
1F
100
AcDbEntity
  8
0
  6
Continuous
 62
     7
370
    15
100
AcDbLine
 10
72.1704902823
 20
122.2172887183
 30
0.0
 11
74.484297889
 21
122.2172887183
 31
0.0
  0
LINE
  5
1B1
330
1F
100
AcDbEntity
  8
0
  6
Continuous
 62
     7
370
    15
100
AcDbLine
 10
83.2364949162
 20
149.8822854019
 30
0.0
 11
83.2364949162
 21
151.8942923403
 31
0.0
  0
LINE
  5
1B2
330
1F
100
AcDbEntity
  8
0
  6
Continuous
 62
     7
370
    15
100
AcDbLine
 10
83.2364949162
 20
151.8942923403
 30
0.0
 11
78.0052932675
 21
151.8942923403
 31
0.0
  0
LINE
  5
1B3
330
1F
100
AcDbEntity
  8
0
  6
Continuous
 62
     7
370
    15
100
AcDbLine
 10
78.0052932675
 20
151.8942923403
 30
0.0
 11
78.0052932675
 21
149.8822854019
 31
0.0
  0
LINE
  5
1B4
330
1F
100
AcDbEntity
  8
0
  6
Continuous
 62
     7
370
    15
100
AcDbLine
 10
78.0052932675
 20
112.6602874256
 30
0.0
 11
78.0052932675
 21
110.6482879377
 31
0.0
  0
LINE
  5
1B5
330
1F
100
AcDbEntity
  8
0
  6
Continuous
 62
     7
370
    15
100
AcDbLine
 10
83.2364949162
 20
112.6602874256
 30
0.0
 11
78.0052932675
 21
112.6602874256
 31
0.0
  0
LINE
  5
1B6
330
1F
100
AcDbEntity
  8
0
  6
Continuous
 62
     7
370
    15
100
AcDbLine
 10
78.0052932675
 20
149.8822854019
 30
0.0
 11
83.2364949162
 21
149.8822854019
 31
0.0
  0
LINE
  5
1B7
330
1F
100
AcDbEntity
  8
0
  6
Continuous
 62
     7
370
    15
100
AcDbLine
 10
78.0052932675
 20
110.6482879377
 30
0.0
 11
83.2364949162
 21
110.6482879377
 31
0.0
  0
LINE
  5
1B8
330
1F
100
AcDbEntity
  8
0
  6
Continuous
 62
     7
370
    15
100
AcDbLine
 10
74.484297889
 20
125.2352879501
 30
0.0
 11
72.1704902823
 21
125.2352879501
 31
0.0
  0
LINE
  5
1B9
330
1F
100
AcDbEntity
  8
0
  6
Continuous
 62
     7
370
    15
100
AcDbLine
 10
74.484297889
 20
122.2172887183
 30
0.0
 11
74.484297889
 21
125.2352879501
 31
0.0
  0
LINE
  5
1BA
330
1F
100
AcDbEntity
  8
0
  6
Continuous
 62
     7
370
    15
100
AcDbLine
 10
72.1704902823
 20
129.7622905231
 30
0.0
 11
74.484297889
 21
129.7622905231
 31
0.0
  0
CIRCLE
  5
1BB
330
1F
100
AcDbEntity
  8
0
  6
Continuous
 62
     7
370
    15
100
AcDbCircle
 10
79.7154915569
 20
123.7262888913
 30
0.0
 40
2.514999999999986
  0
LINE
  5
1BC
330
1F
100
AcDbEntity
  8
0
  6
Continuous
 62
     7
370
    15
100
AcDbLine
 10
83.2364949162
 20
110.6482879377
 30
0.0
 11
83.2364949162
 21
112.6602874256
 31
0.0
  0
LINE
  5
1BD
330
1F
100
AcDbEntity
  8
0
  6
Continuous
 62
     7
370
    15
100
AcDbLine
 10
83.2364949162
 20
150.1862094856
 30
0.0
 11
78.0052932675
 21
150.1405523277
 31
0.0
  0
LINE
  5
1BE
330
1F
100
AcDbEntity
  8
0
  6
Continuous
 62
     7
370
    15
100
AcDbLine
 10
78.0052932675
 20
112.4020242251
 30
0.0
 11
83.2364949162
 21
112.3563707925
 31
0.0
  0
LINE
  5
1BF
330
1F
100
AcDbEntity
  8
0
  6
Continuous
 62
     7
370
    15
100
AcDbLine
 10
70.6614943917
 20
164.7251756049
 30
0.0
 11
70.6614943917
 21
153.9062918282
 31
0.0
  0
LINE
  5
1C0
330
1F
100
AcDbEntity
  8
0
  6
Continuous
 62
     7
370
    15
100
AcDbLine
 10
71.5357157166
 20
164.7251756049
 30
0.0
 11
70.6614943917
 21
164.7251756049
 31
0.0
  0
LINE
  5
1C1
330
1F
100
AcDbEntity
  8
0
  6
Continuous
 62
     7
370
    15
100
AcDbLine
 10
71.641692775
 20
158.6540625549
 30
0.0
 11
71.5357157166
 21
164.7251756049
 31
0.0
  0
ARC
  5
1C2
330
1F
100
AcDbEntity
  8
0
  6
Continuous
 62
     7
370
    15
100
AcDbCircle
 10
73.653381727
 20
158.6891783386
 30
0.0
 40
2.012
100
AcDbArc
 50
181.0
 51
270.0
  0
LINE
  5
1C3
330
1F
100
AcDbEntity
  8
0
  6
Continuous
 62
     7
370
    15
100
AcDbLine
 10
84.5704021628
 20
156.6771776534
 30
0.0
 11
73.6533793385
 21
156.6771776534
 31
0.0
  0
ARC
  5
1C4
330
1F
100
AcDbEntity
  8
0
  6
Continuous
 62
     7
370
    15
100
AcDbCircle
 10
84.5704013869
 20
158.6891783386
 30
0.0
 40
2.012
100
AcDbArc
 50
270.0
 51
359.0
  0
LINE
  5
1C5
330
1F
100
AcDbEntity
  8
0
  6
Continuous
 62
     7
370
    15
100
AcDbLine
 10
86.6880657847
 20
164.7251756049
 30
0.0
 11
86.5820887263
 21
158.6540625549
 31
0.0
  0
LINE
  5
1C6
330
1F
100
AcDbEntity
  8
0
  6
Continuous
 62
     7
370
    15
100
AcDbLine
 10
87.5622871096
 20
164.7251756049
 30
0.0
 11
86.6880657847
 21
164.7251756049
 31
0.0
  0
LINE
  5
1C7
330
1F
100
AcDbEntity
  8
0
  6
Continuous
 62
     7
370
    15
100
AcDbLine
 10
87.5622871096
 20
153.9062918282
 30
0.0
 11
87.5622871096
 21
164.7251756049
 31
0.0
  0
LINE
  5
1C8
330
1F
100
AcDbEntity
  8
0
  6
Continuous
 62
     7
370
    15
100
AcDbLine
 10
73.6533793385
 20
105.8653988994
 30
0.0
 11
84.5704021628
 21
105.8653988994
 31
0.0
  0
ARC
  5
1C9
330
1F
100
AcDbEntity
  8
0
  6
Continuous
 62
     7
370
    15
100
AcDbCircle
 10
73.653381727
 20
103.8533994439
 30
0.0
 40
2.012
100
AcDbArc
 50
90.0
 51
179.0
  0
LINE
  5
1CA
330
1F
100
AcDbEntity
  8
0
  6
Continuous
 62
     7
370
    15
100
AcDbLine
 10
71.5357157166
 20
97.8173990852
 30
0.0
 11
71.641692775
 21
103.8885139979
 31
0.0
  0
LINE
  5
1CB
330
1F
100
AcDbEntity
  8
0
  6
Continuous
 62
     7
370
    15
100
AcDbLine
 10
70.6614943917
 20
97.8173990852
 30
0.0
 11
71.5357157166
 21
97.8173990852
 31
0.0
  0
LINE
  5
1CC
330
1F
100
AcDbEntity
  8
0
  6
Continuous
 62
     7
370
    15
100
AcDbLine
 10
70.6614943917
 20
108.6362884498
 30
0.0
 11
70.6614943917
 21
97.8173990852
 31
0.0
  0
LINE
  5
1CD
330
1F
100
AcDbEntity
  8
0
  6
Continuous
 62
     7
370
    15
100
AcDbLine
 10
87.5622871096
 20
97.8173990852
 30
0.0
 11
87.5622871096
 21
108.6362884498
 31
0.0
  0
LINE
  5
1CE
330
1F
100
AcDbEntity
  8
0
  6
Continuous
 62
     7
370
    15
100
AcDbLine
 10
86.6880657847
 20
97.8173990852
 30
0.0
 11
87.5622871096
 21
97.8173990852
 31
0.0
  0
LINE
  5
1CF
330
1F
100
AcDbEntity
  8
0
  6
Continuous
 62
     7
370
    15
100
AcDbLine
 10
86.5820887263
 20
103.8885139979
 30
0.0
 11
86.6880657847
 21
97.8173990852
 31
0.0
  0
ARC
  5
1D0
330
1F
100
AcDbEntity
  8
0
  6
Continuous
 62
     7
370
    15
100
AcDbCircle
 10
84.5704013869
 20
103.8533994439
 30
0.0
 40
2.012
100
AcDbArc
 50
1.0
 51
90.0
  0
LINE
  5
1D1
330
1F
100
AcDbEntity
  8
0
  6
Continuous
 62
     7
370
    15
100
AcDbLine
 10
88.0652907069
 20
164.7207872129
 30
0.0
 11
88.0652907069
 21
153.403288231
 31
0.0
  0
ARC
  5
1D2
330
1F
100
AcDbEntity
  8
0
  6
Continuous
 62
     7
370
    15
100
AcDbCircle
 10
87.6884822315
 20
150.3601556698
 30
0.0
 40
14.3655742295464
100
AcDbArc
 50
88.4969614591
 51
90.5033241805
  0
ARC
  5
1D3
330
1F
100
AcDbEntity
  8
0
  6
Continuous
 62
     7
370
    15
100
AcDbCircle
 10
70.5353079615
 20
150.359159411
 30
0.0
 40
14.36657037356395
100
AcDbArc
 50
89.4967453849
 51
91.5029689756
  0
LINE
  5
1D4
330
1F
100
AcDbEntity
  8
0
  6
Continuous
 62
     7
370
    15
100
AcDbLine
 10
70.1584907944
 20
153.403288231
 30
0.0
 11
70.1584907944
 21
164.7207872129
 31
0.0
  0
ARC
  5
1D5
330
1F
100
AcDbEntity
  8
0
  6
Continuous
 62
     7
370
    15
100
AcDbCircle
 10
70.5357940357
 20
112.2330129605
 30
0.0
 40
14.41616190182496
100
AcDbArc
 50
268.50026989
 51
270.4995914441
  0
LINE
  5
1D6
330
1F
100
AcDbEntity
  8
0
  6
Continuous
 62
     7
370
    15
100
AcDbLine
 10
70.1584907944
 20
97.8217893398
 30
0.0
 11
70.1584907944
 21
109.1392883218
 31
0.0
  0
LINE
  5
1D7
330
1F
100
AcDbEntity
  8
0
  6
Continuous
 62
     7
370
    15
100
AcDbLine
 10
88.0652907069
 20
109.1392883218
 30
0.0
 11
88.0652907069
 21
97.8217893398
 31
0.0
  0
ARC
  5
1D8
330
1F
100
AcDbEntity
  8
0
  6
Continuous
 62
     7
370
    15
100
AcDbCircle
 10
87.6879961921
 20
112.232013139
 30
0.0
 40
14.41516219446791
100
AcDbArc
 50
269.5003392213
 51
271.4997994447
  0
ARC
  5
1D9
330
1F
100
AcDbEntity
  8
0
  6
Continuous
 62
     7
370
    15
100
AcDbCircle
 10
84.5704013869
 20
158.6847888913
 30
0.0
 40
1.508999999999995
100
AcDbArc
 50
270.0
 51
359.0
  0
ARC
  5
1DA
330
1F
100
AcDbEntity
  8
0
  6
Continuous
 62
     7
370
    15
100
AcDbCircle
 10
86.2050493626
 20
144.2644008522
 30
0.0
 40
14.3946004668412
100
AcDbArc
 50
88.4990736449
 51
90.5010342766
  0
LINE
  5
1DB
330
1F
100
AcDbEntity
  8
0
  6
Continuous
 62
     7
370
    15
100
AcDbLine
 10
84.5704021628
 20
157.1757854081
 30
0.0
 11
84.5704021628
 21
156.6771776534
 31
0.0
  0
ARC
  5
1DC
330
1F
100
AcDbEntity
  8
0
  6
Continuous
 62
     7
370
    15
100
AcDbCircle
 10
73.653381727
 20
158.6847888913
 30
0.0
 40
1.508999999999986
100
AcDbArc
 50
181.0
 51
270.0
  0
LINE
  5
1DD
330
1F
100
AcDbEntity
  8
0
  6
Continuous
 62
     7
370
    15
100
AcDbLine
 10
73.6533793385
 20
157.1757854081
 30
0.0
 11
73.6533793385
 21
156.6771776534
 31
0.0
  0
ARC
  5
1DE
330
1F
100
AcDbEntity
  8
0
  6
Continuous
 62
     7
370
    15
100
AcDbCircle
 10
72.0187321387
 20
144.2644008522
 30
0.0
 40
14.3946004668412
100
AcDbArc
 50
89.4989657234
 51
91.5009263551
  0
LINE
  5
1DF
330
1F
100
AcDbEntity
  8
0
  6
Continuous
 62
     7
370
    15
100
AcDbLine
 10
73.6533793385
 20
157.1757854081
 30
0.0
 11
84.5704021628
 21
157.1757854081
 31
0.0
  0
ARC
  5
1E0
330
1F
100
AcDbEntity
  8
0
  6
Continuous
 62
     7
370
    15
100
AcDbCircle
 10
73.653381727
 20
103.8577888913
 30
0.0
 40
1.509000000000008
100
AcDbArc
 50
109.0566983432
 51
179.0
  0
ARC
  5
1E1
330
1F
100
AcDbEntity
  8
0
  6
Continuous
 62
     7
370
    15
100
AcDbCircle
 10
72.018987025
 20
118.3012666033
 30
0.0
 40
14.41769012759475
100
AcDbArc
 50
268.5004646362
 51
270.4992189045
  0
ARC
  5
1E2
330
1F
100
AcDbEntity
  8
0
  6
Continuous
 62
     7
370
    15
100
AcDbCircle
 10
86.2047944763
 20
118.3012666033
 30
0.0
 40
14.41769012759475
100
AcDbArc
 50
269.5007810955
 51
271.4995353638
  0
ARC
  5
1E3
330
1F
100
AcDbEntity
  8
0
  6
Continuous
 62
     7
370
    15
100
AcDbCircle
 10
84.5704013869
 20
103.8577888913
 30
0.0
 40
1.508999999999994
100
AcDbArc
 50
1.0
 51
71.0433960172
  0
LINE
  5
1E4
330
1F
100
AcDbEntity
  8
0
  6
Continuous
 62
     7
370
    15
100
AcDbLine
 10
86.079174536
 20
158.6584509469
 30
0.0
 11
86.1851366933
 21
164.7295639969
 31
0.0
  0
ARC
  5
1E5
330
1F
100
AcDbEntity
  8
0
  6
Continuous
 62
     7
370
    15
100
AcDbCircle
 10
86.3110059602
 20
150.3335964454
 30
0.0
 40
14.39651780175197
100
AcDbArc
 50
88.4991921261
 51
90.5009454195
  0
LINE
  5
1E6
330
1F
100
AcDbEntity
  8
0
  6
Continuous
 62
     7
370
    15
100
AcDbLine
 10
72.0386448081
 20
164.7295639969
 30
0.0
 11
72.1446069653
 21
158.6584509469
 31
0.0
  0
ARC
  5
1E7
330
1F
100
AcDbEntity
  8
0
  6
Continuous
 62
     7
370
    15
100
AcDbCircle
 10
71.9127760481
 20
150.3335383397
 30
0.0
 40
14.39657590080397
100
AcDbArc
 50
89.49905862
 51
91.5008038344
  0
LINE
  5
1E8
330
1F
100
AcDbEntity
  8
0
  6
Continuous
 62
     7
370
    15
100
AcDbLine
 10
86.1851366933
 20
97.8130106933
 30
0.0
 11
86.079174536
 21
103.8841237432
 31
0.0
  0
ARC
  5
1E9
330
1F
100
AcDbEntity
  8
0
  6
Continuous
 62
     7
370
    15
100
AcDbCircle
 10
86.310893686
 20
112.2218453652
 30
0.0
 40
14.40938345055135
100
AcDbArc
 50
269.49994832
 51
271.4999141344
  0
LINE
  5
1EA
330
1F
100
AcDbEntity
  8
0
  6
Continuous
 62
     7
370
    15
100
AcDbLine
 10
72.1446069653
 20
103.8841237432
 30
0.0
 11
72.0386448081
 21
97.8130106933
 31
0.0
  0
ARC
  5
1EB
330
1F
100
AcDbEntity
  8
0
  6
Continuous
 62
     7
370
    15
100
AcDbCircle
 10
71.9128883295
 20
112.2219042922
 30
0.0
 40
14.40944237075736
100
AcDbArc
 50
268.5000899549
 51
270.5000475907
  0
LINE
  5
1EC
330
1F
100
AcDbEntity
  8
0
  6
Continuous
 62
     7
370
    15
100
AcDbLine
 10
86.6880657847
 20
165.2237908102
 30
0.0
 11
86.6880657847
 21
164.7251756049
 31
0.0
  0
LINE
  5
1ED
330
1F
100
AcDbEntity
  8
0
  6
Continuous
 62
     7
370
    15
100
AcDbLine
 10
86.6880657847
 20
165.2237908102
 30
0.0
 11
87.5622871096
 21
165.2237908102
 31
0.0
  0
LINE
  5
1EE
330
1F
100
AcDbEntity
  8
0
  6
Continuous
 62
     7
370
    15
100
AcDbLine
 10
87.5622871096
 20
164.7251756049
 30
0.0
 11
87.5622871096
 21
165.2237908102
 31
0.0
  0
LINE
  5
1EF
330
1F
100
AcDbEntity
  8
0
  6
Continuous
 62
     7
370
    15
100
AcDbLine
 10
70.6614943917
 20
165.2237908102
 30
0.0
 11
70.6614943917
 21
164.7251756049
 31
0.0
  0
ARC
  5
1F0
330
1F
100
AcDbEntity
  8
0
  6
Continuous
 62
     7
370
    15
100
AcDbCircle
 10
70.6614915569
 20
164.7207888913
 30
0.0
 40
0.5030000000000427
100
AcDbArc
 50
90.0
 51
180.0
  0
LINE
  5
1F1
330
1F
100
AcDbEntity
  8
0
  6
Continuous
 62
     7
370
    15
100
AcDbLine
 10
71.5357157166
 20
164.7251756049
 30
0.0
 11
71.5357157166
 21
165.2237908102
 31
0.0
  0
ARC
  5
1F2
330
1F
100
AcDbEntity
  8
0
  6
Continuous
 62
     7
370
    15
100
AcDbCircle
 10
71.535716471
 20
164.7207888913
 30
0.0
 40
0.5030000000000427
100
AcDbArc
 50
1.0
 51
90.0
  0
ARC
  5
1F3
330
1F
100
AcDbEntity
  8
0
  6
Continuous
 62
     7
370
    15
100
AcDbCircle
 10
87.5622915569
 20
164.7207888913
 30
0.0
 40
0.5030000000000427
100
AcDbArc
 50
0.0
 51
90.0
  0
LINE
  5
1F4
330
1F
100
AcDbEntity
  8
0
  6
Continuous
 62
     7
370
    15
100
AcDbLine
 10
70.6614943917
 20
165.2237908102
 30
0.0
 11
71.5357157166
 21
165.2237908102
 31
0.0
  0
ARC
  5
1F5
330
1F
100
AcDbEntity
  8
0
  6
Continuous
 62
     7
370
    15
100
AcDbCircle
 10
86.6880666428
 20
164.7207888913
 30
0.0
 40
0.5030000000000427
100
AcDbArc
 50
90.0
 51
179.0
  0
ARC
  5
1F6
330
1F
100
AcDbEntity
  8
0
  6
Continuous
 62
     7
370
    15
100
AcDbCircle
 10
70.6614915569
 20
97.8217888913
 30
0.0
 40
0.5030000000000143
100
AcDbArc
 50
180.0
 51
270.0
  0
LINE
  5
1F7
330
1F
100
AcDbEntity
  8
0
  6
Continuous
 62
     7
370
    15
100
AcDbLine
 10
70.6614943917
 20
97.3187894679
 30
0.0
 11
70.6614943917
 21
97.8173990852
 31
0.0
  0
ARC
  5
1F8
330
1F
100
AcDbEntity
  8
0
  6
Continuous
 62
     7
370
    15
100
AcDbCircle
 10
71.535716471
 20
97.8217888913
 30
0.0
 40
0.5030000000000001
100
AcDbArc
 50
270.0
 51
359.0
  0
LINE
  5
1F9
330
1F
100
AcDbEntity
  8
0
  6
Continuous
 62
     7
370
    15
100
AcDbLine
 10
71.5357157166
 20
97.3187894679
 30
0.0
 11
71.5357157166
 21
97.8173990852
 31
0.0
  0
ARC
  5
1FA
330
1F
100
AcDbEntity
  8
0
  6
Continuous
 62
     7
370
    15
100
AcDbCircle
 10
86.6880666428
 20
97.8217888913
 30
0.0
 40
0.5030000000000001
100
AcDbArc
 50
181.0
 51
270.0
  0
LINE
  5
1FB
330
1F
100
AcDbEntity
  8
0
  6
Continuous
 62
     7
370
    15
100
AcDbLine
 10
86.6880657847
 20
97.8173990852
 30
0.0
 11
86.6880657847
 21
97.3187894679
 31
0.0
  0
LINE
  5
1FC
330
1F
100
AcDbEntity
  8
0
  6
Continuous
 62
     7
370
    15
100
AcDbLine
 10
87.5622871096
 20
97.3187894679
 30
0.0
 11
87.5622871096
 21
97.8173990852
 31
0.0
  0
LINE
  5
1FD
330
1F
100
AcDbEntity
  8
0
  6
Continuous
 62
     7
370
    15
100
AcDbLine
 10
87.5622871096
 20
97.3187894679
 30
0.0
 11
86.6880657847
 21
97.3187894679
 31
0.0
  0
LINE
  5
1FE
330
1F
100
AcDbEntity
  8
0
  6
Continuous
 62
     7
370
    15
100
AcDbLine
 10
71.5357157166
 20
97.3187894679
 30
0.0
 11
70.6614943917
 21
97.3187894679
 31
0.0
  0
ARC
  5
1FF
330
1F
100
AcDbEntity
  8
0
  6
Continuous
 62
     7
370
    15
100
AcDbCircle
 10
87.5622915569
 20
97.8217888913
 30
0.0
 40
0.5030000000000001
100
AcDbArc
 50
270.0
 51
0.0
  0
LINE
  5
200
330
1F
100
AcDbEntity
  8
0
  6
Continuous
 62
     7
370
    15
100
AcDbLine
 10
86.1305537398
 20
100.9403881735
 30
0.0
 11
72.0932277615
 21
100.9403881735
 31
0.0
  0
LINE
  5
201
330
1F
100
AcDbEntity
  8
0
  6
Continuous
 62
     7
370
    15
100
AcDbLine
 10
72.0380338605
 20
97.795464576
 30
0.0
 11
86.185762542
 21
97.795464576
 31
0.0
  0
LINE
  5
202
330
1F
100
AcDbEntity
  8
0
  6
Continuous
 62
     7
370
    15
100
AcDbLine
 10
86.185762542
 20
164.7471175647
 30
0.0
 11
72.0380338605
 21
164.7471175647
 31
0.0
  0
LINE
  5
203
330
1F
100
AcDbEntity
  8
0
  6
Continuous
 62
     7
370
    15
100
AcDbLine
 10
86.6880657847
 20
97.3187894679
 30
0.0
 11
71.5357157166
 21
97.3187894679
 31
0.0
  0
LINE
  5
204
330
1F
100
AcDbEntity
  8
0
  6
Continuous
 62
     7
370
    15
100
AcDbLine
 10
71.5357157166
 20
165.2237908102
 30
0.0
 11
86.6880657847
 21
165.2237908102
 31
0.0
  0
LINE
  5
205
330
1F
100
AcDbEntity
  8
0
  6
Continuous
 62
     7
370
    15
100
AcDbLine
 10
73.6533793385
 20
94.5478999174
 30
0.0
 11
84.5704021628
 21
94.5478999174
 31
0.0
  0
ARC
  5
206
330
1F
100
AcDbEntity
  8
0
  6
Continuous
 62
     7
370
    15
100
AcDbCircle
 10
73.653381727
 20
92.5358994439
 30
0.0
 40
2.012000000000025
100
AcDbArc
 50
90.0
 51
179.0
  0
LINE
  5
207
330
1F
100
AcDbEntity
  8
0
  6
Continuous
 62
     7
370
    15
100
AcDbLine
 10
71.5357157166
 20
86.499899172
 30
0.0
 11
71.641692775
 21
92.5710131533
 31
0.0
  0
LINE
  5
208
330
1F
100
AcDbEntity
  8
0
  6
Continuous
 62
     7
370
    15
100
AcDbLine
 10
70.6614943917
 20
86.499899172
 30
0.0
 11
71.5357157166
 21
86.499899172
 31
0.0
  0
LINE
  5
209
330
1F
100
AcDbEntity
  8
0
  6
Continuous
 62
     7
370
    15
100
AcDbLine
 10
70.6614943917
 20
97.3187894679
 30
0.0
 11
70.6614943917
 21
86.499899172
 31
0.0
  0
LINE
  5
20A
330
1F
100
AcDbEntity
  8
0
  6
Continuous
 62
     7
370
    15
100
AcDbLine
 10
87.5622871096
 20
86.499899172
 30
0.0
 11
87.5622871096
 21
97.3187894679
 31
0.0
  0
LINE
  5
20B
330
1F
100
AcDbEntity
  8
0
  6
Continuous
 62
     7
370
    15
100
AcDbLine
 10
86.6880657847
 20
86.499899172
 30
0.0
 11
87.5622871096
 21
86.499899172
 31
0.0
  0
LINE
  5
20C
330
1F
100
AcDbEntity
  8
0
  6
Continuous
 62
     7
370
    15
100
AcDbLine
 10
86.5820887263
 20
92.5710131533
 30
0.0
 11
86.6880657847
 21
86.499899172
 31
0.0
  0
ARC
  5
20D
330
1F
100
AcDbEntity
  8
0
  6
Continuous
 62
     7
370
    15
100
AcDbCircle
 10
84.5704013869
 20
92.5358994439
 30
0.0
 40
2.012000000000015
100
AcDbArc
 50
1.0
 51
90.0
  0
LINE
  5
20E
330
1F
100
AcDbEntity
  8
0
  6
Continuous
 62
     7
370
    15
100
AcDbLine
 10
70.6614943917
 20
176.0426820374
 30
0.0
 11
70.6614943917
 21
165.2237908102
 31
0.0
  0
LINE
  5
20F
330
1F
100
AcDbEntity
  8
0
  6
Continuous
 62
     7
370
    15
100
AcDbLine
 10
71.5357157166
 20
176.0426820374
 30
0.0
 11
70.6614943917
 21
176.0426820374
 31
0.0
  0
LINE
  5
210
330
1F
100
AcDbEntity
  8
0
  6
Continuous
 62
     7
370
    15
100
AcDbLine
 10
71.641692775
 20
169.9715615369
 30
0.0
 11
71.5357157166
 21
176.0426820374
 31
0.0
  0
ARC
  5
211
330
1F
100
AcDbEntity
  8
0
  6
Continuous
 62
     7
370
    15
100
AcDbCircle
 10
73.653381727
 20
170.0066783386
 30
0.0
 40
2.012000000000029
100
AcDbArc
 50
181.0
 51
270.0
  0
LINE
  5
212
330
1F
100
AcDbEntity
  8
0
  6
Continuous
 62
     7
370
    15
100
AcDbLine
 10
84.5704021628
 20
167.9946766353
 30
0.0
 11
73.6533793385
 21
167.9946766353
 31
0.0
  0
ARC
  5
213
330
1F
100
AcDbEntity
  8
0
  6
Continuous
 62
     7
370
    15
100
AcDbCircle
 10
84.5704013869
 20
170.0066783386
 30
0.0
 40
2.012000000000029
100
AcDbArc
 50
270.0
 51
359.0
  0
LINE
  5
214
330
1F
100
AcDbEntity
  8
0
  6
Continuous
 62
     7
370
    15
100
AcDbLine
 10
86.6880657847
 20
176.0426820374
 30
0.0
 11
86.5820887263
 21
169.9715615369
 31
0.0
  0
LINE
  5
215
330
1F
100
AcDbEntity
  8
0
  6
Continuous
 62
     7
370
    15
100
AcDbLine
 10
87.5622871096
 20
176.0426820374
 30
0.0
 11
86.6880657847
 21
176.0426820374
 31
0.0
  0
LINE
  5
216
330
1F
100
AcDbEntity
  8
0
  6
Continuous
 62
     7
370
    15
100
AcDbLine
 10
87.5622871096
 20
165.2237908102
 30
0.0
 11
87.5622871096
 21
176.0426820374
 31
0.0
  0
ARC
  5
217
330
1F
100
AcDbEntity
  8
0
  6
Continuous
 62
     7
370
    15
100
AcDbCircle
 10
87.6880015585
 20
100.9169557972
 30
0.0
 40
14.41760471988942
100
AcDbArc
 50
269.5004025452
 51
271.499523968
  0
LINE
  5
218
330
1F
100
AcDbEntity
  8
0
  6
Continuous
 62
     7
370
    15
100
AcDbLine
 10
88.0652907069
 20
97.8217893398
 30
0.0
 11
88.0652907069
 21
86.5042884952
 31
0.0
  0
ARC
  5
219
330
1F
100
AcDbEntity
  8
0
  6
Continuous
 62
     7
370
    15
100
AcDbCircle
 10
87.6879911397
 20
161.6458079256
 30
0.0
 40
14.39742288380607
100
AcDbArc
 50
88.4983320904
 51
90.5002563276
  0
LINE
  5
21A
330
1F
100
AcDbEntity
  8
0
  6
Continuous
 62
     7
370
    15
100
AcDbLine
 10
88.0652907069
 20
176.0382861949
 30
0.0
 11
88.0652907069
 21
164.7207872129
 31
0.0
  0
ARC
  5
21B
330
1F
100
AcDbEntity
  8
0
  6
Continuous
 62
     7
370
    15
100
AcDbCircle
 10
70.5357990757
 20
161.6448107992
 30
0.0
 40
14.39841989611345
100
AcDbArc
 50
89.4998129906
 51
91.5015985914
  0
LINE
  5
21C
330
1F
100
AcDbEntity
  8
0
  6
Continuous
 62
     7
370
    15
100
AcDbLine
 10
70.1584907944
 20
164.7207872129
 30
0.0
 11
70.1584907944
 21
176.0382861949
 31
0.0
  0
ARC
  5
21D
330
1F
100
AcDbEntity
  8
0
  6
Continuous
 62
     7
370
    15
100
AcDbCircle
 10
70.5357886738
 20
100.9179563493
 30
0.0
 40
14.41860515783739
100
AcDbArc
 50
268.5005453938
 51
270.499528093
  0
LINE
  5
21E
330
1F
100
AcDbEntity
  8
0
  6
Continuous
 62
     7
370
    15
100
AcDbLine
 10
70.1584907944
 20
86.5042884952
 30
0.0
 11
70.1584907944
 21
97.8217893398
 31
0.0
  0
ARC
  5
21F
330
1F
100
AcDbEntity
  8
0
  6
Continuous
 62
     7
370
    15
100
AcDbCircle
 10
84.5704013869
 20
170.0022888913
 30
0.0
 40
1.508999999999994
100
AcDbArc
 50
280.2717118161
 51
359.0
  0
ARC
  5
220
330
1F
100
AcDbEntity
  8
0
  6
Continuous
 62
     7
370
    15
100
AcDbCircle
 10
86.2050493626
 20
155.5818998342
 30
0.0
 40
14.3946004668412
100
AcDbArc
 50
88.4990736449
 51
90.5010342766
  0
ARC
  5
221
330
1F
100
AcDbEntity
  8
0
  6
Continuous
 62
     7
370
    15
100
AcDbCircle
 10
84.5704013869
 20
92.5402888913
 30
0.0
 40
1.509
100
AcDbArc
 50
1.0
 51
90.0
  0
LINE
  5
222
330
1F
100
AcDbEntity
  8
0
  6
Continuous
 62
     7
370
    15
100
AcDbLine
 10
84.5704021628
 20
94.0492884374
 30
0.0
 11
84.5704021628
 21
94.5478999174
 31
0.0
  0
ARC
  5
223
330
1F
100
AcDbEntity
  8
0
  6
Continuous
 62
     7
370
    15
100
AcDbCircle
 10
86.2049370907
 20
106.9735413335
 30
0.0
 40
14.40746547240749
100
AcDbArc
 50
269.4998596298
 51
271.5000324486
  0
ARC
  5
224
330
1F
100
AcDbEntity
  8
0
  6
Continuous
 62
     7
370
    15
100
AcDbCircle
 10
73.653381727
 20
170.0022888913
 30
0.0
 40
1.509000000000008
100
AcDbArc
 50
181.0
 51
260.353093061
  0
ARC
  5
225
330
1F
100
AcDbEntity
  8
0
  6
Continuous
 62
     7
370
    15
100
AcDbCircle
 10
72.0187321387
 20
155.5818998342
 30
0.0
 40
14.3946004668412
100
AcDbArc
 50
89.4989657234
 51
91.5009263551
  0
LINE
  5
226
330
1F
100
AcDbEntity
  8
0
  6
Continuous
 62
     7
370
    15
100
AcDbLine
 10
84.5704021628
 20
94.0492884374
 30
0.0
 11
80.9057893927
 21
94.0492884374
 31
0.0
  0
LINE
  5
227
330
1F
100
AcDbEntity
  8
0
  6
Continuous
 62
     7
370
    15
100
AcDbLine
 10
77.3180070098
 20
94.0492884374
 30
0.0
 11
73.6533793385
 21
94.0492884374
 31
0.0
  0
LINE
  5
228
330
1F
100
AcDbEntity
  8
0
  6
Continuous
 62
     7
370
    15
100
AcDbLine
 10
73.6533793385
 20
94.0492884374
 30
0.0
 11
73.6533793385
 21
94.5478999174
 31
0.0
  0
ARC
  5
229
330
1F
100
AcDbEntity
  8
0
  6
Continuous
 62
     7
370
    15
100
AcDbCircle
 10
73.653381727
 20
92.5402888913
 30
0.0
 40
1.509000000000009
100
AcDbArc
 50
90.0
 51
179.0
  0
ARC
  5
22A
330
1F
100
AcDbEntity
  8
0
  6
Continuous
 62
     7
370
    15
100
AcDbCircle
 10
72.0188444106
 20
106.9735413335
 30
0.0
 40
14.40746547240749
100
AcDbArc
 50
268.4999675514
 51
270.5001403702
  0
LINE
  5
22B
330
1F
100
AcDbEntity
  8
0
  6
Continuous
 62
     7
370
    15
100
AcDbLine
 10
72.1446069653
 20
92.5666247613
 30
0.0
 11
72.0386448081
 21
86.49551078
 31
0.0
  0
ARC
  5
22C
330
1F
100
AcDbEntity
  8
0
  6
Continuous
 62
     7
370
    15
100
AcDbCircle
 10
71.9128883295
 20
100.9044043789
 30
0.0
 40
14.40944237075736
100
AcDbArc
 50
268.5000899549
 51
270.5000475907
  0
LINE
  5
22D
330
1F
100
AcDbEntity
  8
0
  6
Continuous
 62
     7
370
    15
100
AcDbLine
 10
86.1851366933
 20
86.49551078
 30
0.0
 11
86.079174536
 21
92.5666247613
 31
0.0
  0
ARC
  5
22E
330
1F
100
AcDbEntity
  8
0
  6
Continuous
 62
     7
370
    15
100
AcDbCircle
 10
86.310893686
 20
100.9043454519
 30
0.0
 40
14.40938345055135
100
AcDbArc
 50
269.49994832
 51
271.4999141344
  0
LINE
  5
22F
330
1F
100
AcDbEntity
  8
0
  6
Continuous
 62
     7
370
    15
100
AcDbLine
 10
72.0386448081
 20
176.0470704294
 30
0.0
 11
72.1446069653
 21
169.9759499288
 31
0.0
  0
ARC
  5
230
330
1F
100
AcDbEntity
  8
0
  6
Continuous
 62
     7
370
    15
100
AcDbCircle
 10
71.9134141361
 20
161.5779170657
 30
0.0
 40
14.46969528994813
100
AcDbArc
 50
89.5041168179
 51
91.4957456365
  0
LINE
  5
231
330
1F
100
AcDbEntity
  8
0
  6
Continuous
 62
     7
370
    15
100
AcDbLine
 10
86.079174536
 20
169.9759499288
 30
0.0
 11
86.1851366933
 21
176.0470704294
 31
0.0
  0
ARC
  5
232
330
1F
100
AcDbEntity
  8
0
  6
Continuous
 62
     7
370
    15
100
AcDbCircle
 10
86.3103678866
 20
161.5779768201
 30
0.0
 40
14.46963554226826
100
AcDbArc
 50
88.5042502512
 51
90.4958872944
  0
LINE
  5
233
330
1F
100
AcDbEntity
  8
0
  6
Continuous
 62
     7
370
    15
100
AcDbLine
 10
86.6880657847
 20
176.5412897921
 30
0.0
 11
86.6880657847
 21
176.0426820374
 31
0.0
  0
LINE
  5
234
330
1F
100
AcDbEntity
  8
0
  6
Continuous
 62
     7
370
    15
100
AcDbLine
 10
86.6880657847
 20
176.5412897921
 30
0.0
 11
87.5622871096
 21
176.5412897921
 31
0.0
  0
LINE
  5
235
330
1F
100
AcDbEntity
  8
0
  6
Continuous
 62
     7
370
    15
100
AcDbLine
 10
87.5622871096
 20
176.0426820374
 30
0.0
 11
87.5622871096
 21
176.5412897921
 31
0.0
  0
ARC
  5
236
330
1F
100
AcDbEntity
  8
0
  6
Continuous
 62
     7
370
    15
100
AcDbCircle
 10
87.5622915569
 20
86.5042888913
 30
0.0
 40
0.5030000000000001
100
AcDbArc
 50
270.0
 51
0.0
  0
LINE
  5
237
330
1F
100
AcDbEntity
  8
0
  6
Continuous
 62
     7
370
    15
100
AcDbLine
 10
87.5622871096
 20
86.499899172
 30
0.0
 11
87.5622871096
 21
86.0012886233
 31
0.0
  0
LINE
  5
238
330
1F
100
AcDbEntity
  8
0
  6
Continuous
 62
     7
370
    15
100
AcDbLine
 10
70.6614943917
 20
176.0426820374
 30
0.0
 11
70.6614943917
 21
176.5412897921
 31
0.0
  0
LINE
  5
239
330
1F
100
AcDbEntity
  8
0
  6
Continuous
 62
     7
370
    15
100
AcDbLine
 10
70.6614943917
 20
176.5412897921
 30
0.0
 11
71.5357157166
 21
176.5412897921
 31
0.0
  0
LINE
  5
23A
330
1F
100
AcDbEntity
  8
0
  6
Continuous
 62
     7
370
    15
100
AcDbLine
 10
71.5357157166
 20
176.0426820374
 30
0.0
 11
71.5357157166
 21
176.5412897921
 31
0.0
  0
ARC
  5
23B
330
1F
100
AcDbEntity
  8
0
  6
Continuous
 62
     7
370
    15
100
AcDbCircle
 10
71.535716471
 20
176.0382888913
 30
0.0
 40
0.5029999999999886
100
AcDbArc
 50
1.0
 51
90.0
  0
ARC
  5
23C
330
1F
100
AcDbEntity
  8
0
  6
Continuous
 62
     7
370
    15
100
AcDbCircle
 10
71.535716471
 20
86.5042888913
 30
0.0
 40
0.5030000000000001
100
AcDbArc
 50
270.0
 51
359.0
  0
LINE
  5
23D
330
1F
100
AcDbEntity
  8
0
  6
Continuous
 62
     7
370
    15
100
AcDbLine
 10
71.5357157166
 20
86.0012886233
 30
0.0
 11
71.5357157166
 21
86.499899172
 31
0.0
  0
ARC
  5
23E
330
1F
100
AcDbEntity
  8
0
  6
Continuous
 62
     7
370
    15
100
AcDbCircle
 10
70.6614915569
 20
176.0382888913
 30
0.0
 40
0.5030000000000143
100
AcDbArc
 50
90.0
 51
180.0
  0
LINE
  5
23F
330
1F
100
AcDbEntity
  8
0
  6
Continuous
 62
     7
370
    15
100
AcDbLine
 10
70.6614943917
 20
86.499899172
 30
0.0
 11
70.6614943917
 21
86.0012886233
 31
0.0
  0
LINE
  5
240
330
1F
100
AcDbEntity
  8
0
  6
Continuous
 62
     7
370
    15
100
AcDbLine
 10
71.5357157166
 20
86.0012886233
 30
0.0
 11
70.6614943917
 21
86.0012886233
 31
0.0
  0
ARC
  5
241
330
1F
100
AcDbEntity
  8
0
  6
Continuous
 62
     7
370
    15
100
AcDbCircle
 10
87.5622915569
 20
176.0382888913
 30
0.0
 40
0.5030000000000001
100
AcDbArc
 50
0.0
 51
90.0
  0
ARC
  5
242
330
1F
100
AcDbEntity
  8
0
  6
Continuous
 62
     7
370
    15
100
AcDbCircle
 10
70.6614915569
 20
86.5042888913
 30
0.0
 40
0.5030000000000143
100
AcDbArc
 50
180.0
 51
270.0
  0
ARC
  5
243
330
1F
100
AcDbEntity
  8
0
  6
Continuous
 62
     7
370
    15
100
AcDbCircle
 10
86.6880666428
 20
176.0382888913
 30
0.0
 40
0.5029999999999886
100
AcDbArc
 50
90.0
 51
179.0
  0
LINE
  5
244
330
1F
100
AcDbEntity
  8
0
  6
Continuous
 62
     7
370
    15
100
AcDbLine
 10
87.5622871096
 20
86.0012886233
 30
0.0
 11
86.6880657847
 21
86.0012886233
 31
0.0
  0
LINE
  5
245
330
1F
100
AcDbEntity
  8
0
  6
Continuous
 62
     7
370
    15
100
AcDbLine
 10
86.6880657847
 20
86.499899172
 30
0.0
 11
86.6880657847
 21
86.0012886233
 31
0.0
  0
ARC
  5
246
330
1F
100
AcDbEntity
  8
0
  6
Continuous
 62
     7
370
    15
100
AcDbCircle
 10
86.6880666428
 20
86.5042888913
 30
0.0
 40
0.5030000000000001
100
AcDbArc
 50
181.0
 51
270.0
  0
LINE
  5
247
330
1F
100
AcDbEntity
  8
0
  6
Continuous
 62
     7
370
    15
100
AcDbLine
 10
72.0932277615
 20
89.6228891916
 30
0.0
 11
86.1305537398
 21
89.6228891916
 31
0.0
  0
LINE
  5
248
330
1F
100
AcDbEntity
  8
0
  6
Continuous
 62
     7
370
    15
100
AcDbLine
 10
72.0380338605
 20
86.4779637314
 30
0.0
 11
86.185762542
 21
86.4779637314
 31
0.0
  0
LINE
  5
249
330
1F
100
AcDbEntity
  8
0
  6
Continuous
 62
     7
370
    15
100
AcDbLine
 10
86.185762542
 20
176.0646165467
 30
0.0
 11
72.0380338605
 21
176.0646165467
 31
0.0
  0
LINE
  5
24A
330
1F
100
AcDbEntity
  8
0
  6
Continuous
 62
     7
370
    15
100
AcDbLine
 10
86.6880657847
 20
86.0012886233
 30
0.0
 11
71.5357157166
 21
86.0012886233
 31
0.0
  0
LINE
  5
24B
330
1F
100
AcDbEntity
  8
0
  6
Continuous
 62
     7
370
    15
100
AcDbLine
 10
71.5357157166
 20
176.5412897921
 30
0.0
 11
86.6880657847
 21
176.5412897921
 31
0.0
  0
LINE
  5
24C
330
1F
100
AcDbEntity
  8
0
  6
Continuous
 62
     7
370
    15
100
AcDbLine
 10
74.2830875094
 20
131.0946592248
 30
0.0
 11
74.2830875094
 21
130.7928697324
 31
0.0
  0
LINE
  5
24D
330
1F
100
AcDbEntity
  8
0
  6
Continuous
 62
     7
370
    15
100
AcDbLine
 10
74.2830875094
 20
130.7928697324
 30
0.0
 11
72.1704902823
 21
130.7744332708
 31
0.0
  0
LINE
  5
24E
330
1F
100
AcDbEntity
  8
0
  6
Continuous
 62
     7
370
    15
100
AcDbLine
 10
74.2830875094
 20
131.7497068203
 30
0.0
 11
74.2830875094
 21
131.4479173279
 31
0.0
  0
LINE
  5
24F
330
1F
100
AcDbEntity
  8
0
  6
Continuous
 62
     7
370
    15
100
AcDbLine
 10
72.1704902823
 20
131.768143282
 30
0.0
 11
74.2830875094
 21
131.7497068203
 31
0.0
  0
LINE
  5
250
330
1F
100
AcDbEntity
  8
0
  6
Continuous
 62
     7
370
    15
100
AcDbLine
 10
74.2830875094
 20
131.4479173279
 30
0.0
 11
74.2830875094
 21
131.0946592248
 31
0.0
  0
LINE
  5
251
330
1F
100
AcDbEntity
  8
0
  6
Continuous
 62
     7
370
    15
100
AcDbLine
 10
81.2432112868
 20
121.7284598506
 30
0.0
 11
79.3913694794
 21
121.2322623587
 31
0.0
  0
ARC
  5
252
330
1F
100
AcDbEntity
  8
0
  6
Continuous
 62
     7
370
    15
100
AcDbCircle
 10
87.5622915569
 20
86.4727028203
 30
0.0
 40
0.5030000000000079
100
AcDbArc
 50
270.5
 51
0.0
  0
LINE
  5
253
330
1F
100
AcDbEntity
  8
0
  6
Continuous
 62
     7
370
    15
100
AcDbLine
 10
87.5666829522
 20
85.9697223759
 30
0.0
 11
87.5622871096
 21
85.9696832604
 31
0.0
  0
LINE
  5
254
330
1F
100
AcDbEntity
  8
0
  6
Continuous
 62
     7
370
    15
100
AcDbLine
 10
87.5622871096
 20
86.0012886233
 30
0.0
 11
87.5622871096
 21
85.9696832604
 31
0.0
  0
LINE
  5
255
330
1F
100
AcDbEntity
  8
0
  6
Continuous
 62
     7
370
    15
100
AcDbLine
 10
88.0652907069
 20
86.5042884952
 30
0.0
 11
88.0652907069
 21
86.4727026901
 31
0.0
  0
LINE
  5
256
330
1F
100
AcDbEntity
  8
0
  6
Continuous
 62
     7
370
    15
100
AcDbLine
 10
85.1478966649
 20
85.9486139498
 30
0.0
 11
85.1478966649
 21
86.0012886233
 31
0.0
  0
LINE
  5
257
330
1F
100
AcDbEntity
  8
0
  6
Continuous
 62
     7
370
    15
100
AcDbLine
 10
85.1478966649
 20
85.9486139498
 30
0.0
 11
87.5622871096
 21
85.9696832604
 31
0.0
  0
LINE
  5
258
330
1F
100
AcDbEntity
  8
0
  6
Continuous
 62
     7
370
    15
100
AcDbLine
 10
85.1478966649
 20
85.9486139498
 30
0.0
 11
84.993163007
 21
85.9499634362
 31
0.0
  0
LINE
  5
259
330
1F
100
AcDbEntity
  8
0
  6
Continuous
 62
     7
370
    15
100
AcDbLine
 10
83.1682774003
 20
85.9658890522
 30
0.0
 11
79.1118982012
 21
86.0012886233
 31
0.0
  0
ELLIPSE
  5
25A
330
1F
100
AcDbEntity
  8
0
  6
Continuous
 62
     8
370
    15
100
AcDbEllipse
 10
75.4603993312
 20
86.6864912944
 30
0.0
 11
0.5783327262015375
 21
0.9357779431258135
 31
0.0
210
0.0
220
0.0
230
1.0
 40
0.999914862
 41
2.79675335668354
 42
3.695121321382464
  0
ELLIPSE
  5
25B
330
1F
100
AcDbEntity
  8
0
  6
Continuous
 62
     8
370
    15
100
AcDbEllipse
 10
82.4897268594
 20
86.6864912944
 30
0.0
 11
-0.5783327262015518
 21
0.9357779431258137
 31
0.0
210
0.0
220
0.0
230
1.0
 40
0.999914862
 41
2.588063985797088
 42
3.48643195049604
  0
ARC
  5
25C
330
1F
100
AcDbEntity
  8
0
  6
Continuous
 62
     8
370
    15
100
AcDbCircle
 10
82.4757933344
 20
85.586447842
 30
0.0
 40
0.0999978717042411
100
AcDbArc
 50
90.0015453937
 51
134.9996222724
  0
ELLIPSE
  5
25D
330
1F
100
AcDbEntity
  8
0
  6
Continuous
 62
     8
370
    15
100
AcDbEllipse
 10
75.4612719847
 20
86.6864912944
 30
0.0
 11
0.5941430727415309
 21
0.8044616324656175
 31
0.0
210
0.0
220
0.0
230
1.0
 40
0.9998964284
 41
2.961724526180965
 42
3.777689897419977
  0
LINE
  5
25E
330
1F
100
AcDbEntity
  8
0
  6
Continuous
 62
     8
370
    15
100
AcDbLine
 10
78.0052932675
 20
150.4423455454
 30
0.0
 11
83.2364949162
 21
150.4879952527
 31
0.0
  0
LINE
  5
25F
330
1F
100
AcDbEntity
  8
0
  6
Continuous
 62
     8
370
    15
100
AcDbLine
 10
83.2364949162
 20
112.0545850254
 30
0.0
 11
78.0052932675
 21
112.1002347327
 31
0.0
  0
LINE
  5
260
330
1F
100
AcDbEntity
  8
0
  6
Continuous
 62
     8
370
    15
100
AcDbLine
 10
73.6533793385
 20
105.8653988994
 30
0.0
 11
73.6533793385
 21
105.3840932555
 31
0.0
  0
LINE
  5
261
330
1F
100
AcDbEntity
  8
0
  6
Continuous
 62
     8
370
    15
100
AcDbLine
 10
84.5704021628
 20
105.8653988994
 30
0.0
 11
84.5704021628
 21
105.3840932555
 31
0.0
  0
LINE
  5
262
330
1F
100
AcDbEntity
  8
0
  6
Continuous
 62
     8
370
    15
100
AcDbLine
 10
84.5704021628
 20
168.4845523096
 30
0.0
 11
84.5704021628
 21
167.9946766353
 31
0.0
  0
LINE
  5
263
330
1F
100
AcDbEntity
  8
0
  6
Continuous
 62
     8
370
    15
100
AcDbLine
 10
73.6533793385
 20
168.4845523096
 30
0.0
 11
73.6533793385
 21
167.9946766353
 31
0.0
  0
LINE
  5
264
330
1F
100
AcDbEntity
  8
0
  6
Continuous
 62
     8
370
    15
100
AcDbLine
 10
72.1704902823
 20
131.0762227631
 30
0.0
 11
74.2830875094
 21
131.0946592248
 31
0.0
  0
LINE
  5
265
330
1F
100
AcDbEntity
  8
0
  6
Continuous
 62
     8
370
    15
100
AcDbLine
 10
74.2830875094
 20
131.4479173279
 30
0.0
 11
72.1704902823
 21
131.4663537896
 31
0.0
  0
LINE
  5
266
330
1F
100
AcDbEntity
  8
0
  6
Continuous
 62
     7
370
    15
100
AcDbLine
 10
142.5556399989
 20
116.501288966
 30
0.0
 11
142.4770512748
 21
116.501288966
 31
0.0
  0
LINE
  5
267
330
1F
100
AcDbEntity
  8
0
  6
Continuous
 62
     7
370
    15
100
AcDbLine
 10
176.0867172051
 20
94.0389228172
 30
0.0
 11
176.1787505019
 21
94.03411533
 31
0.0
  0
LINE
  5
268
330
1F
100
AcDbEntity
  8
0
  6
Continuous
 62
     7
370
    15
100
AcDbLine
 10
176.1286118197
 20
93.9893522418
 30
0.0
 11
176.1787505019
 21
94.03411533
 31
0.0
  0
LINE
  5
269
330
1F
100
AcDbEntity
  8
0
  6
Continuous
 62
     7
370
    15
100
AcDbLine
 10
176.1787505019
 20
94.03411533
 30
0.0
 11
176.0712982285
 21
92.2723994709
 31
0.0
  0
LINE
  5
26A
330
1F
100
AcDbEntity
  8
0
  6
Continuous
 62
     7
370
    15
100
AcDbLine
 10
176.0872834492
 20
168.4387759424
 30
0.0
 11
176.1825838256
 21
168.43425344
 31
0.0
  0
ELLIPSE
  5
26B
330
1F
100
AcDbEntity
  8
0
  6
Continuous
 62
     7
370
    15
100
AcDbEllipse
 10
175.7683239674
 20
172.3116702919
 30
0.0
 11
0.483668836738076
 21
-0.1381914694320017
 31
0.0
210
0.0
220
0.0
230
1.0
 40
0.9998306068
 41
0.2397713513908455
 42
1.255066157784648
  0
LINE
  5
26C
330
1F
100
AcDbEntity
  8
0
  6
Continuous
 62
     7
370
    15
100
AcDbLine
 10
176.1813842821
 20
169.9659587002
 30
0.0
 11
176.2709700632
 21
172.2922758318
 31
0.0
  0
ELLIPSE
  5
26D
330
1F
100
AcDbEntity
  8
0
  6
Continuous
 62
     7
370
    15
100
AcDbEllipse
 10
175.8313289148
 20
172.3694764805
 30
0.0
 11
0.3706651206406092
 21
0.3400802440343113
 31
2.586346148274579E-16
210
1.404677808744934E-16
220
-9.136112056543734E-16
230
1.0
 40
0.9999245092
 41
5.502188212299357
 42
6.664062044164301
  0
LINE
  5
26E
330
1F
100
AcDbEntity
  8
0
  6
Continuous
 62
     7
370
    15
100
AcDbLine
 10
176.3339721727
 20
172.3500848866
 30
0.0
 11
176.2709700632
 21
172.2922758318
 31
0.0
  0
ELLIPSE
  5
26F
330
1F
100
AcDbEntity
  8
0
  6
Continuous
 62
     7
370
    15
100
AcDbEllipse
 10
176.1955543074
 20
169.9916498151
 30
0.0
 11
0.05829787737647508
 21
1.507930962988951
 31
0.0
210
0.0
220
0.0
230
1.0
 40
0.0087265354
 41
1.588173458193562
 42
3.132789846206813
  0
LINE
  5
270
330
1F
100
AcDbEntity
  8
0
  6
Continuous
 62
     7
370
    15
100
AcDbLine
 10
176.1825838256
 20
168.43425344
 30
0.0
 11
176.3339721727
 21
172.3500848866
 31
0.0
  0
LINE
  5
271
330
1F
100
AcDbEntity
  8
0
  6
Continuous
 62
     7
370
    15
100
AcDbLine
 10
162.3380490708
 20
176.5412897921
 30
0.0
 11
162.3361342716
 21
176.5433983064
 31
0.0
  0
LINE
  5
272
330
1F
100
AcDbEntity
  8
0
  6
Continuous
 62
     7
370
    15
100
AcDbLine
 10
162.3361342716
 20
176.5433983064
 30
0.0
 11
162.3360336888
 21
176.5412897921
 31
0.0
  0
LINE
  5
273
330
1F
100
AcDbEntity
  8
0
  6
Continuous
 62
     7
370
    15
100
AcDbLine
 10
162.3806179631
 20
176.5412897921
 30
0.0
 11
162.3361342716
 21
176.5433983064
 31
0.0
  0
ELLIPSE
  5
274
330
1F
100
AcDbEntity
  8
0
  6
Continuous
 62
     7
370
    15
100
AcDbEllipse
 10
190.120247675
 20
161.1650162904
 30
0.0
 11
0.3711957074582984
 21
0.3395010321140717
 31
-7.425505003490144E-17
210
2.256719357422971E-16
220
-2.802172278300368E-17
230
1.0
 40
0.9999245092
 41
5.502188212299322
 42
6.438748117903017
  0
LINE
  5
275
330
1F
100
AcDbEntity
  8
0
  6
Continuous
 62
     7
370
    15
100
AcDbLine
 10
190.6228614169
 20
161.1448363519
 30
0.0
 11
190.5597661752
 21
161.0871316052
 31
0.0
  0
ELLIPSE
  5
276
330
1F
100
AcDbEntity
  8
0
  6
Continuous
 62
     7
370
    15
100
AcDbEllipse
 10
190.0571525395
 20
161.1073085551
 30
0.0
 11
0.4834524597019652
 21
-0.1389465547015902
 31
0.0
210
0.0
220
0.0
230
1.0
 40
0.9998306068
 41
0.2397713513912604
 42
0.999575705236946
  0
LINE
  5
277
330
1F
100
AcDbEntity
  8
0
  6
Continuous
 62
     7
370
    15
100
AcDbLine
 10
190.4665500987
 20
158.7609560347
 30
0.0
 11
190.5597661752
 21
161.0871316052
 31
0.0
  0
ELLIPSE
  5
278
330
1F
100
AcDbEntity
  8
0
  6
Continuous
 62
     7
370
    15
100
AcDbEllipse
 10
190.4807596233
 20
158.7866237824
 30
0.0
 11
0.06065245564664678
 21
1.507838091862453
 31
0.0
210
0.0
220
0.0
230
1.0
 40
0.0087265354
 41
1.588173458193519
 42
1.695202860999379
  0
LINE
  5
279
330
1F
100
AcDbEntity
  8
0
  6
Continuous
 62
     7
370
    15
100
AcDbLine
 10
190.4709310401
 20
157.3678390241
 30
0.0
 11
190.6228614169
 21
161.1448363519
 31
0.0
  0
LINE
  5
27A
330
1F
100
AcDbEntity
  8
0
  6
Continuous
 62
     7
370
    15
100
AcDbLine
 10
176.6882919836
 20
165.2974547005
 30
0.0
 11
176.6846859026
 21
165.2237908102
 31
0.0
  0
LINE
  5
27B
330
1F
100
AcDbEntity
  8
0
  6
Continuous
 62
     7
370
    15
100
AcDbLine
 10
178.1926796901
 20
165.2237908102
 30
0.0
 11
176.6882919836
 21
165.2974547005
 31
0.0
  0
LINE
  5
27C
330
1F
100
AcDbEntity
  8
0
  6
Continuous
 62
     7
370
    15
100
AcDbLine
 10
176.6882919836
 20
165.2974547005
 30
0.0
 11
176.6315856147
 21
165.3600023246
 31
0.0
  0
LINE
  5
27D
330
1F
100
AcDbEntity
  8
0
  6
Continuous
 62
     7
370
    15
100
AcDbLine
 10
176.6315856147
 20
165.3600023246
 30
0.0
 11
176.6249136198
 21
165.2237908102
 31
0.0
  0
LINE
  5
27E
330
1F
100
AcDbEntity
  8
0
  6
Continuous
 62
     7
370
    15
100
AcDbLine
 10
179.4132412541
 20
165.2237908102
 30
0.0
 11
176.6315856147
 21
165.3600023246
 31
0.0
  0
LINE
  5
27F
330
1F
100
AcDbEntity
  8
0
  6
Continuous
 62
     7
370
    15
100
AcDbLine
 10
144.1070520449
 20
113.1996237791
 30
0.0
 11
142.4252399373
 21
113.2010356641
 31
0.0
  0
LINE
  5
280
330
1F
100
AcDbEntity
  8
0
  6
Continuous
 62
     7
370
    15
100
AcDbLine
 10
144.1070520449
 20
113.1996237791
 30
0.0
 11
144.1168570089
 21
113.1632612205
 31
0.0
  0
LINE
  5
281
330
1F
100
AcDbEntity
  8
0
  6
Continuous
 62
     7
370
    15
100
AcDbLine
 10
142.4253889489
 20
113.1120198525
 30
0.0
 11
142.4252399373
 21
113.2010356641
 31
0.0
  0
LINE
  5
282
330
1F
100
AcDbEntity
  8
0
  6
Continuous
 62
     7
370
    15
100
AcDbLine
 10
143.442862587
 20
115.7601089335
 30
0.0
 11
144.0436103511
 21
113.5178418017
 31
0.0
  0
LINE
  5
283
330
1F
100
AcDbEntity
  8
0
  6
Continuous
 62
     7
370
    15
100
AcDbLine
 10
143.5216003227
 20
115.7601089335
 30
0.0
 11
143.442862587
 21
115.7601089335
 31
0.0
  0
LINE
  5
284
330
1F
100
AcDbEntity
  8
0
  6
Continuous
 62
     7
370
    15
100
AcDbLine
 10
144.1224374938
 20
113.5178418017
 30
0.0
 11
143.5216003227
 21
115.7601089335
 31
0.0
  0
LINE
  5
285
330
1F
100
AcDbEntity
  8
0
  6
Continuous
 62
     7
370
    15
100
AcDbLine
 10
144.14163764
 20
113.5178418017
 30
0.0
 11
144.1224374938
 21
113.5178418017
 31
0.0
  0
ELLIPSE
  5
286
330
1F
100
AcDbEntity
  8
0
  6
Continuous
 62
     7
370
    15
100
AcDbEllipse
 10
144.2218397759
 20
113.2185299582
 30
0.0
 11
-0.08020867002659315
 21
0.2993108104976301
 31
0.0
210
0.0
220
0.0
230
1.0
 40
0.0081609293
 41
4.710278187929117
 42
6.280998362311533
  0
LINE
  5
287
330
1F
100
AcDbEntity
  8
0
  6
Continuous
 62
     7
370
    15
100
AcDbLine
 10
144.2244508433
 20
113.2185519791
 30
0.0
 11
144.2251362968
 21
113.2159889794
 31
0.0
  0
LINE
  5
288
330
1F
100
AcDbEntity
  8
0
  6
Continuous
 62
     7
370
    15
100
AcDbLine
 10
144.1019781995
 20
113.2185519791
 30
0.0
 11
144.1070520449
 21
113.1996237791
 31
0.0
  0
ELLIPSE
  5
289
330
1F
100
AcDbEntity
  8
0
  6
Continuous
 62
     7
370
    15
100
AcDbEllipse
 10
144.1046032906
 20
113.2185299582
 30
0.0
 11
-0.08019685275999676
 21
0.2993108106802395
 31
0.0
210
0.0
220
0.0
230
1.0
 40
0.0081610904
 41
6.280998641351133
 42
7.851718815716679
  0
LINE
  5
28A
330
1F
100
AcDbEntity
  8
0
  6
Continuous
 62
     7
370
    15
100
AcDbLine
 10
144.0436103511
 20
113.5178418017
 30
0.0
 11
144.0244102049
 21
113.5178418017
 31
0.0
  0
LINE
  5
28B
330
1F
100
AcDbEntity
  8
0
  6
Continuous
 62
     7
370
    15
100
AcDbLine
 10
142.4252399373
 20
113.2039190388
 30
0.0
 11
142.4252399373
 21
113.2010356641
 31
0.0
  0
LINE
  5
28C
330
1F
100
AcDbEntity
  8
0
  6
Continuous
 62
     7
370
    15
100
AcDbLine
 10
144.1019781995
 20
113.2185519791
 30
0.0
 11
142.4252399373
 21
113.2039190388
 31
0.0
  0
LINE
  5
28D
330
1F
100
AcDbEntity
  8
0
  6
Continuous
 62
     7
370
    15
100
AcDbLine
 10
142.4278550911
 20
113.5039054907
 30
0.0
 11
144.0244102049
 21
113.5178418017
 31
0.0
  0
ARC
  5
28E
330
1F
100
AcDbEntity
  8
0
  6
Continuous
 62
     7
370
    15
100
AcDbCircle
 10
151.0082081914
 20
113.2791010115
 30
0.0
 40
8.583297523627902
100
AcDbArc
 50
178.4991990698
 51
180.5018659551
  0
LINE
  5
28F
330
1F
100
AcDbEntity
  8
0
  6
Continuous
 62
     7
370
    15
100
AcDbLine
 10
144.3386384416
 20
84.1012890569
 30
0.0
 11
144.2339205313
 21
84.1012890569
 31
0.0
  0
LINE
  5
290
330
1F
100
AcDbEntity
  8
0
  6
Continuous
 62
     7
370
    15
100
AcDbLine
 10
144.2339205313
 20
84.1012890569
 30
0.0
 11
144.2339205313
 21
86.0012886233
 31
0.0
  0
LINE
  5
291
330
1F
100
AcDbEntity
  8
0
  6
Continuous
 62
     7
370
    15
100
AcDbLine
 10
144.3386384416
 20
86.0012886233
 30
0.0
 11
144.3386384416
 21
84.1012890569
 31
0.0
  0
ELLIPSE
  5
292
330
1F
100
AcDbEntity
  8
0
  6
Continuous
 62
     7
370
    15
100
AcDbEllipse
 10
144.2556052484
 20
86.6864912944
 30
0.0
 11
7.310850094199850E-7
 21
1.100041886224318
 31
0.0
210
0.0
220
0.0
230
1.0
 40
0.0087265355
 41
2.243224694692213
 42
3.14159265939149
  0
LINE
  5
293
330
1F
100
AcDbEntity
  8
0
  6
Continuous
 62
     7
370
    15
100
AcDbLine
 10
144.2557358313
 20
85.5864496089
 30
0.0
 11
144.2556017208
 21
85.5864496089
 31
0.0
  0
LINE
  5
294
330
1F
100
AcDbEntity
  8
0
  6
Continuous
 62
     7
370
    15
100
AcDbLine
 10
144.2557358313
 20
85.4576998509
 30
0.0
 11
144.2557358313
 21
85.5864496089
 31
0.0
  0
LINE
  5
295
330
1F
100
AcDbEntity
  8
0
  6
Continuous
 62
     7
370
    15
100
AcDbLine
 10
144.3168231416
 20
85.4576998509
 30
0.0
 11
144.2557358313
 21
85.4576998509
 31
0.0
  0
LINE
  5
296
330
1F
100
AcDbEntity
  8
0
  6
Continuous
 62
     7
370
    15
100
AcDbLine
 10
144.3168231416
 20
85.5864496089
 30
0.0
 11
144.3168231416
 21
85.4576998509
 31
0.0
  0
LINE
  5
297
330
1F
100
AcDbEntity
  8
0
  6
Continuous
 62
     7
370
    15
100
AcDbLine
 10
144.3169498014
 20
85.5864496089
 30
0.0
 11
144.3168231416
 21
85.5864496089
 31
0.0
  0
LINE
  5
298
330
1F
100
AcDbEntity
  8
0
  6
Continuous
 62
     7
370
    15
100
AcDbLine
 10
142.1339967418
 20
84.1012890569
 30
0.0
 11
144.2339205313
 21
84.1012890569
 31
0.0
  0
ELLIPSE
  5
299
330
1F
100
AcDbEntity
  8
0
  6
Continuous
 62
     7
370
    15
100
AcDbEllipse
 10
143.6391768089
 20
84.1012888913
 30
0.0
 11
0.0
 21
0.6000000000000227
 31
0.0
210
0.0
220
0.0
230
1.0
 40
0.9912353876
 41
3.141592653589793
 42
4.712388980384704
  0
LINE
  5
29A
330
1F
100
AcDbEntity
  8
0
  6
Continuous
 62
     7
370
    15
100
AcDbLine
 10
143.6391779351
 20
83.5012886792
 30
0.0
 11
142.7392074037
 21
83.5012886792
 31
0.0
  0
ELLIPSE
  5
29B
330
1F
100
AcDbEntity
  8
0
  6
Continuous
 62
     7
370
    15
100
AcDbEllipse
 10
142.7392110782
 20
84.1012888913
 30
0.0
 11
0.6052130751375273
 21
0.0
 31
0.0
210
0.0
220
0.0
230
1.0
 40
0.9913863805
 41
3.141592653589793
 42
4.712388980384704
  0
LINE
  5
29C
330
1F
100
AcDbEntity
  8
0
  6
Continuous
 62
     7
370
    15
100
AcDbLine
 10
142.1339967418
 20
84.1012890569
 30
0.0
 11
142.1339967418
 21
86.0012886233
 31
0.0
  0
ELLIPSE
  5
29D
330
1F
100
AcDbEntity
  8
0
  6
Continuous
 62
     7
370
    15
100
AcDbEllipse
 10
143.7334233923
 20
84.1012888913
 30
0.0
 11
0.6052130751375273
 21
0.0
 31
0.0
210
0.0
220
0.0
230
1.0
 40
0.9913863805
 41
4.712388980384704
 42
6.283185307179586
  0
LINE
  5
29E
330
1F
100
AcDbEntity
  8
0
  6
Continuous
 62
     7
370
    15
100
AcDbLine
 10
143.7334203291
 20
83.5012886792
 30
0.0
 11
143.6391779351
 21
83.5012886792
 31
0.0
  0
ELLIPSE
  5
29F
330
1F
100
AcDbEntity
  8
0
  6
Continuous
 62
     7
370
    15
100
AcDbEllipse
 10
142.4770501096
 20
115.5012888913
 30
0.0
 11
0.0
 21
1.0
 31
0.0
210
0.0
220
0.0
230
1.0
 40
0.9998857677
 41
4.97418836818383
 42
6.981317007977306
  0
LINE
  5
2A0
330
1F
100
AcDbEntity
  8
0
  6
Continuous
 62
     7
370
    15
100
AcDbLine
 10
138.5579937267
 20
113.5178418017
 30
0.0
 11
142.4470552373
 21
113.5178418017
 31
0.0
  0
LINE
  5
2A1
330
1F
100
AcDbEntity
  8
0
  6
Continuous
 62
     7
370
    15
100
AcDbLine
 10
138.5579937267
 20
113.5178418017
 30
0.0
 11
141.8343343902
 21
116.2673332847
 31
0.0
  0
LINE
  5
2A2
330
1F
100
AcDbEntity
  8
0
  6
Continuous
 62
     7
370
    15
100
AcDbLine
 10
142.4470552373
 20
113.5040731288
 30
0.0
 11
142.4470552373
 21
113.5178418017
 31
0.0
  0
ELLIPSE
  5
2A3
330
1F
100
AcDbEntity
  8
0
  6
Continuous
 62
     7
370
    15
100
AcDbEllipse
 10
142.5556391916
 20
115.5012888913
 30
0.0
 11
-1.000038078385757
 21
0.0
 31
7.105427357601002E-15
210
7.105156804699332E-15
220
0.0
230
1.0
 40
0.9999619231
 41
3.403392041388947
 42
4.712388980384675
  0
ELLIPSE
  5
2A4
330
1F
100
AcDbEntity
  8
0
  6
Continuous
 62
     7
370
    15
100
AcDbEllipse
 10
138.2476200785
 20
112.3012888913
 30
0.0
 11
-0.1661151685575249
 21
0.2498223010847056
 31
0.0
210
0.0
220
0.0
230
1.0
 40
0.9999015807
 41
0.984040082487222
 42
1.509386557842223
  0
LINE
  5
2A5
330
1F
100
AcDbEntity
  8
0
  6
Continuous
 62
     7
370
    15
100
AcDbLine
 10
137.9476347137
 20
112.3012886501
 30
0.0
 11
137.9476347137
 21
112.306112901
 31
0.0
  0
ELLIPSE
  5
2A6
330
1F
100
AcDbEntity
  8
0
  6
Continuous
 62
     7
370
    15
100
AcDbEllipse
 10
139.4475739483
 20
112.3061133641
 30
0.0
 11
-0.8305758427875961
 21
1.249111505423542
 31
0.0
210
0.0
220
0.0
230
1.0
 40
0.9999015807
 41
0.1113754564900966
 42
0.9840400824872515
  0
LINE
  5
2A7
330
1F
100
AcDbEntity
  8
0
  6
Continuous
 62
     7
370
    15
100
AcDbLine
 10
138.483324008
 20
113.4551786936
 30
0.0
 11
138.5579937267
 21
113.5178418017
 31
0.0
  0
LWPOLYLINE
  5
2A8
330
1F
100
AcDbEntity
  8
0
  6
Continuous
 62
     7
370
    15
100
AcDbPolyline
 90
        3
 70
   128
 43
0.0
 10
144.2537986803
 20
85.6060129709
 10
144.2538359332
 20
85.6058518521
 10
144.2557358313
 20
85.5864496089
  0
LINE
  5
2A9
330
1F
100
AcDbEntity
  8
0
  6
Continuous
 62
     7
370
    15
100
AcDbLine
 10
144.2557358313
 20
85.5012885413
 30
0.0
 11
144.3064370322
 21
85.5012885413
 31
0.0
  0
ELLIPSE
  5
2AA
330
1F
100
AcDbEntity
  8
0
  6
Continuous
 62
     7
370
    15
100
AcDbEllipse
 10
144.2168239364
 20
85.4576999018
 30
0.0
 11
-0.07101853756230982
 21
0.07101853756232404
 31
0.0
210
0.0
220
0.0
230
1.0
 40
0.9913112106
 41
3.931354140117215
 42
4.382380951921309
  0
ELLIPSE
  5
2AB
330
1F
100
AcDbEntity
  8
0
  6
Continuous
 62
     7
370
    15
100
AcDbEllipse
 10
144.2168239364
 20
85.5645930338
 30
0.0
 11
0.09999974734702731
 21
-0.05890326541342008
 31
0.0
210
0.0
220
0.0
230
1.0
 40
0.0038162555
 41
5.114296098844011
 42
5.82567974983518
  0
LINE
  5
2AC
330
1F
100
AcDbEntity
  8
0
  6
Continuous
 62
     7
370
    15
100
AcDbLine
 10
144.3064370322
 20
85.5115787245
 30
0.0
 11
144.2557358313
 21
85.5115787245
 31
0.0
  0
LINE
  5
2AD
330
1F
100
AcDbEntity
  8
0
  6
Continuous
 62
     7
370
    15
100
AcDbLine
 10
144.3064370322
 20
85.5012885413
 30
0.0
 11
144.3064370322
 21
85.5115787245
 31
0.0
  0
ARC
  5
2AE
330
1F
100
AcDbEntity
  8
0
  6
Continuous
 62
     7
370
    15
100
AcDbCircle
 10
144.2168222525
 20
85.5864489207
 30
0.0
 40
0.1000008890433237
100
AcDbArc
 50
0.0003942715
 51
69.5708681326
  0
ARC
  5
2AF
330
1F
100
AcDbEntity
  8
0
  6
Continuous
 62
     7
370
    15
100
AcDbCircle
 10
138.2005728531
 20
86.5042682479
 30
0.0
 40
0.5029796246388556
100
AcDbArc
 50
179.9976935711
 51
270.0001846852
  0
LINE
  5
2B0
330
1F
100
AcDbEntity
  8
0
  6
Continuous
 62
     7
370
    15
100
AcDbLine
 10
138.2005744743
 20
86.5042884952
 30
0.0
 11
137.6975932288
 21
86.5042884952
 31
0.0
  0
LINE
  5
2B1
330
1F
100
AcDbEntity
  8
0
  6
Continuous
 62
     7
370
    15
100
AcDbLine
 10
138.2005744743
 20
86.5042884952
 30
0.0
 11
138.2005744743
 21
86.0012886233
 31
0.0
  0
LINE
  5
2B2
330
1F
100
AcDbEntity
  8
0
  6
Continuous
 62
     7
370
    15
100
AcDbLine
 10
138.1891378331
 20
147.3672897673
 30
0.0
 11
138.1891378331
 21
146.8642861701
 31
0.0
  0
ARC
  5
2B3
330
1F
100
AcDbEntity
  8
0
  6
Continuous
 62
     7
370
    15
100
AcDbCircle
 10
138.1891388125
 20
147.3672888913
 30
0.0
 40
0.5029999999999859
100
AcDbArc
 50
180.0
 51
270.0
  0
LINE
  5
2B4
330
1F
100
AcDbEntity
  8
0
  6
Continuous
 62
     7
370
    15
100
AcDbLine
 10
138.1891378331
 20
147.3672897673
 30
0.0
 11
137.6861416864
 21
147.3672897673
 31
0.0
  0
ARC
  5
2B5
330
1F
100
AcDbEntity
  8
0
  6
Continuous
 62
     7
370
    15
100
AcDbCircle
 10
138.1891388125
 20
148.8411157048
 30
0.0
 40
0.5029999999999984
100
AcDbArc
 50
172.0
 51
180.0
  0
LWPOLYLINE
  5
2B6
330
1F
100
AcDbEntity
  8
0
  6
Continuous
 62
     7
370
    15
100
AcDbPolyline
 90
        9
 70
   128
 43
0.0
 10
137.6910367179
 20
148.9111171222
 10
137.7006032634
 20
148.9097760177
 10
137.7289527226
 20
148.9057899571
 10
137.7749824095
 20
148.8993228532
 10
137.8369265366
 20
148.8906131244
 10
137.9124083686
 20
148.8800109482
 10
137.9985221791
 20
148.8679037548
 10
138.0919599104
 20
148.8547758318
 10
138.1891378331
 20
148.8411189175
  0
LINE
  5
2B7
330
1F
100
AcDbEntity
  8
0
  6
Continuous
 62
     7
370
    15
100
AcDbLine
 10
138.1891378331
 20
148.8411189175
 30
0.0
 11
137.6861416864
 21
148.8411189175
 31
0.0
  0
LINE
  5
2B8
330
1F
100
AcDbEntity
  8
0
  6
Continuous
 62
     7
370
    15
100
AcDbLine
 10
138.1891378331
 20
147.3672897673
 30
0.0
 11
140.9987890291
 21
147.3672897673
 31
0.0
  0
LINE
  5
2B9
330
1F
100
AcDbEntity
  8
0
  6
Continuous
 62
     7
370
    15
100
AcDbLine
 10
140.9987890291
 20
147.3672897673
 30
0.0
 11
140.9987890291
 21
146.8642861701
 31
0.0
  0
LINE
  5
2BA
330
1F
100
AcDbEntity
  8
0
  6
Continuous
 62
     7
370
    15
100
AcDbLine
 10
140.9987890291
 20
146.8642861701
 30
0.0
 11
138.1891378331
 21
146.8642861701
 31
0.0
  0
LINE
  5
2BB
330
1F
100
AcDbEntity
  8
0
  6
Continuous
 62
     7
370
    15
100
AcDbLine
 10
143.2191365528
 20
148.8762856579
 30
0.0
 11
141.3544648457
 21
147.0116139508
 31
0.0
  0
LINE
  5
2BC
330
1F
100
AcDbEntity
  8
0
  6
Continuous
 62
     7
370
    15
100
AcDbLine
 10
141.3544648457
 20
147.0116139508
 30
0.0
 11
140.9987890291
 21
147.3672897673
 31
0.0
  0
LINE
  5
2BD
330
1F
100
AcDbEntity
  8
0
  6
Continuous
 62
     7
370
    15
100
AcDbLine
 10
140.9987890291
 20
147.3672897673
 30
0.0
 11
143.010788517
 21
149.3792892552
 31
0.0
  0
LWPOLYLINE
  5
2BE
330
1F
100
AcDbEntity
  8
0
  6
Continuous
 62
     7
370
    15
100
AcDbPolyline
 90
        9
 70
   128
 43
0.0
 10
143.2191365528
 20
148.8762856579
 10
143.215135591
 20
148.8859565116
 10
143.2032817173
 20
148.9145741916
 10
143.1840219665
 20
148.961058364
 10
143.1581162977
 20
149.0236134387
 10
143.1265407372
 20
149.0998403288
 10
143.0905246305
 20
149.1867960549
 10
143.0514388847
 20
149.2811576582
 10
143.010788517
 20
149.3792892552
  0
LINE
  5
2BF
330
1F
100
AcDbEntity
  8
0
  6
Continuous
 62
     7
370
    15
100
AcDbLine
 10
189.9037425536
 20
97.8217893398
 30
0.0
 11
190.0025093126
 21
109.1392883218
 31
0.0
  0
LINE
  5
2C0
330
1F
100
AcDbEntity
  8
0
  6
Continuous
 62
     7
370
    15
100
AcDbLine
 10
175.616708504
 20
97.8217893398
 30
0.0
 11
189.9037425536
 21
97.8217893398
 31
0.0
  0
LINE
  5
2C1
330
1F
100
AcDbEntity
  8
0
  6
Continuous
 62
     7
370
    15
100
AcDbLine
 10
175.5179436076
 20
86.5042884952
 30
0.0
 11
175.616708504
 21
97.8217893398
 31
0.0
  0
LINE
  5
2C2
330
1F
100
AcDbEntity
  8
0
  6
Continuous
 62
     7
370
    15
100
AcDbLine
 10
138.2005744743
 20
86.5042884952
 30
0.0
 11
175.5179436076
 21
86.5042884952
 31
0.0
  0
LINE
  5
2C3
330
1F
100
AcDbEntity
  8
0
  6
Continuous
 62
     7
370
    15
100
AcDbLine
 10
138.2005744743
 20
111.4226528562
 30
0.0
 11
138.2005744743
 21
86.5042884952
 31
0.0
  0
ELLIPSE
  5
2C4
330
1F
100
AcDbEntity
  8
0
  6
Continuous
 62
     7
370
    15
100
AcDbEllipse
 10
138.703590117
 20
111.4226211639
 30
0.0
 11
0.3853453575782452
 21
-0.3233431474197772
 31
0.0
210
0.0
220
0.0
230
1.0
 40
0.9999351162
 41
2.443492902706593
 42
3.839692404472943
  0
LINE
  5
2C5
330
1F
100
AcDbEntity
  8
0
  6
Continuous
 62
     7
370
    15
100
AcDbLine
 10
142.7611493635
 20
112.6488582349
 30
0.0
 11
138.6162125635
 21
111.9179935313
 31
0.0
  0
LINE
  5
2C6
330
1F
100
AcDbEntity
  8
0
  6
Continuous
 62
     7
370
    15
100
AcDbLine
 10
144.728139894
 20
112.6488582349
 30
0.0
 11
142.7611493635
 21
112.6488582349
 31
0.0
  0
LINE
  5
2C7
330
1F
100
AcDbEntity
  8
0
  6
Continuous
 62
     7
370
    15
100
AcDbLine
 10
144.728139894
 20
149.3792892552
 30
0.0
 11
144.728139894
 21
112.6488582349
 31
0.0
  0
LINE
  5
2C8
330
1F
100
AcDbEntity
  8
0
  6
Continuous
 62
     7
370
    15
100
AcDbLine
 10
143.010788517
 20
149.3792892552
 30
0.0
 11
144.728139894
 21
149.3792892552
 31
0.0
  0
LINE
  5
2C9
330
1F
100
AcDbEntity
  8
0
  6
Continuous
 62
     7
370
    15
100
AcDbLine
 10
138.1891378331
 20
148.8411189175
 30
0.0
 11
138.1891378331
 21
147.3672897673
 31
0.0
  0
LINE
  5
2CA
330
1F
100
AcDbEntity
  8
0
  6
Continuous
 62
     7
370
    15
100
AcDbLine
 10
141.9603386092
 20
175.6745712019
 30
0.0
 11
138.1891378331
 21
148.8411189175
 31
0.0
  0
ARC
  5
2CB
330
1F
100
AcDbEntity
  8
0
  6
Continuous
 62
     7
370
    15
100
AcDbCircle
 10
142.3787432661
 20
175.6157688913
 30
0.0
 40
0.42252000000002
100
AcDbArc
 50
90.0
 51
172.0
  0
LINE
  5
2CC
330
1F
100
AcDbEntity
  8
0
  6
Continuous
 62
     7
370
    15
100
AcDbLine
 10
175.5179436076
 20
176.0382861949
 30
0.0
 11
142.3787408638
 21
176.0382861949
 31
0.0
  0
LINE
  5
2CD
330
1F
100
AcDbEntity
  8
0
  6
Continuous
 62
     7
370
    15
100
AcDbLine
 10
175.616708504
 20
164.7207872129
 30
0.0
 11
175.5179436076
 21
176.0382861949
 31
0.0
  0
LINE
  5
2CE
330
1F
100
AcDbEntity
  8
0
  6
Continuous
 62
     7
370
    15
100
AcDbLine
 10
189.9037425536
 20
164.7207872129
 30
0.0
 11
175.616708504
 21
164.7207872129
 31
0.0
  0
LINE
  5
2CF
330
1F
100
AcDbEntity
  8
0
  6
Continuous
 62
     7
370
    15
100
AcDbLine
 10
190.0025093126
 20
153.403288231
 30
0.0
 11
189.9037425536
 21
164.7207872129
 31
0.0
  0
LINE
  5
2D0
330
1F
100
AcDbEntity
  8
0
  6
Continuous
 62
     7
370
    15
100
AcDbLine
 10
214.343338659
 20
153.403288231
 30
0.0
 11
190.0025093126
 21
153.403288231
 31
0.0
  0
LINE
  5
2D1
330
1F
100
AcDbEntity
  8
0
  6
Continuous
 62
     7
370
    15
100
AcDbLine
 10
214.343338659
 20
109.1392883218
 30
0.0
 11
214.343338659
 21
153.403288231
 31
0.0
  0
LINE
  5
2D2
330
1F
100
AcDbEntity
  8
0
  6
Continuous
 62
     7
370
    15
100
AcDbLine
 10
190.0025093126
 20
109.1392883218
 30
0.0
 11
214.343338659
 21
109.1392883218
 31
0.0
  0
LINE
  5
2D3
330
1F
100
AcDbEntity
  8
0
  6
Continuous
 62
     7
370
    15
100
AcDbLine
 10
137.6861416864
 20
147.3672897673
 30
0.0
 11
137.6861416864
 21
148.8411189175
 31
0.0
  0
LINE
  5
2D4
330
1F
100
AcDbEntity
  8
0
  6
Continuous
 62
     7
370
    15
100
AcDbLine
 10
175.5179436076
 20
86.5042884952
 30
0.0
 11
175.5179436076
 21
86.0012886233
 31
0.0
  0
LINE
  5
2D5
330
1F
100
AcDbEntity
  8
0
  6
Continuous
 62
     7
370
    15
100
AcDbLine
 10
175.5179436076
 20
86.0012886233
 30
0.0
 11
138.2005744743
 21
86.0012886233
 31
0.0
  0
LINE
  5
2D6
330
1F
100
AcDbEntity
  8
0
  6
Continuous
 62
     7
370
    15
100
AcDbLine
 10
142.3787408638
 20
176.0382861949
 30
0.0
 11
142.3787408638
 21
176.5412897921
 31
0.0
  0
LINE
  5
2D7
330
1F
100
AcDbEntity
  8
0
  6
Continuous
 62
     7
370
    15
100
AcDbLine
 10
142.3787408638
 20
176.5412897921
 30
0.0
 11
175.5179436076
 21
176.5412897921
 31
0.0
  0
LINE
  5
2D8
330
1F
100
AcDbEntity
  8
0
  6
Continuous
 62
     7
370
    15
100
AcDbLine
 10
175.5179436076
 20
176.0382861949
 30
0.0
 11
175.5179436076
 21
176.5412897921
 31
0.0
  0
LWPOLYLINE
  5
2D9
330
1F
100
AcDbEntity
  8
0
  6
Continuous
 62
     7
370
    15
100
AcDbPolyline
 90
        9
 70
   128
 43
0.0
 10
141.9603386092
 20
175.6745712019
 10
141.8631606865
 20
175.6882281161
 10
141.7697155046
 20
175.7013634897
 10
141.6836016941
 20
175.7134632326
 10
141.6081198621
 20
175.7240728594
 10
141.546175735
 20
175.7327751375
 10
141.5001460481
 20
175.739249692
 10
141.4718040395
 20
175.7432283021
 10
141.4622300434
 20
175.7445768572
  0
ARC
  5
2DA
330
1F
100
AcDbEntity
  8
0
  6
Continuous
 62
     7
370
    15
100
AcDbCircle
 10
142.3787432661
 20
175.6157688913
 30
0.0
 40
0.9255200000000059
100
AcDbArc
 50
90.0
 51
172.0
  0
LINE
  5
2DB
330
1F
100
AcDbEntity
  8
0
  6
Continuous
 62
     7
370
    15
100
AcDbLine
 10
137.6910367179
 20
148.9111171222
 30
0.0
 11
141.4622300434
 21
175.7445768572
 31
0.0
  0
ARC
  5
2DC
330
1F
100
AcDbEntity
  8
0
  6
Continuous
 62
     7
370
    15
100
AcDbCircle
 10
140.9987893906
 20
147.3672888913
 30
0.0
 40
0.5029999999999876
100
AcDbArc
 50
270.0
 51
315.0
  0
LINE
  5
2DD
330
1F
100
AcDbEntity
  8
0
  6
Continuous
 62
     7
370
    15
100
AcDbLine
 10
137.6975932288
 20
86.5042884952
 30
0.0
 11
137.6975932288
 21
111.4226528562
 31
0.0
  0
LINE
  5
2DE
330
1F
100
AcDbEntity
  8
0
  6
Continuous
 62
     7
370
    15
100
AcDbLine
 10
138.2005744743
 20
111.4226528562
 30
0.0
 11
137.6975932288
 21
111.4226528562
 31
0.0
  0
LWPOLYLINE
  5
2DF
330
1F
100
AcDbEntity
  8
0
  6
Continuous
 62
     7
370
    15
100
AcDbPolyline
 90
        9
 70
   128
 43
0.0
 10
144.2251362968
 20
148.8762856579
 10
144.2348071504
 20
148.8859565116
 10
144.2634248304
 20
148.9145741916
 10
144.3099090028
 20
148.961058364
 10
144.3724640775
 20
149.0236134387
 10
144.448683517
 20
149.0998403288
 10
144.5356466937
 20
149.1867960549
 10
144.630008297
 20
149.2811576582
 10
144.728139894
 20
149.3792892552
  0
LINE
  5
2E0
330
1F
100
AcDbEntity
  8
0
  6
Continuous
 62
     7
370
    15
100
AcDbLine
 10
144.2251362968
 20
148.8762856579
 30
0.0
 11
143.2191365528
 21
148.8762856579
 31
0.0
  0
LWPOLYLINE
  5
2E1
330
1F
100
AcDbEntity
  8
0
  6
Continuous
 62
     7
370
    15
100
AcDbPolyline
 90
        9
 70
   128
 43
0.0
 10
142.7611493635
 20
112.6488582349
 10
142.7526109982
 20
112.7464496649
 10
142.7443930078
 20
112.8403307057
 10
142.7368157673
 20
112.9269399799
 10
142.7301623988
 20
113.0029768801
 10
142.7246862221
 20
113.0655543066
 10
142.7206033039
 20
113.1122992492
 10
142.7180477548
 20
113.1414272941
 10
142.7171387839
 20
113.1518357552
  0
LINE
  5
2E2
330
1F
100
AcDbEntity
  8
0
  6
Continuous
 62
     7
370
    15
100
AcDbLine
 10
142.7171387839
 20
113.1518357552
 30
0.0
 11
144.2251586485
 21
113.1518357552
 31
0.0
  0
LWPOLYLINE
  5
2E3
330
1F
100
AcDbEntity
  8
0
  6
Continuous
 62
     7
370
    15
100
AcDbPolyline
 90
        9
 70
   128
 43
0.0
 10
144.728139894
 20
112.6488582349
 10
144.6305447388
 20
112.7464496649
 10
144.5366599727
 20
112.8403307057
 10
144.4500544238
 20
112.9269399799
 10
144.3740212488
 20
113.0029768801
 10
144.3114363718
 20
113.0655543066
 10
144.2646988797
 20
113.1122992492
 10
144.2355671096
 20
113.1414272941
 10
144.2251586485
 20
113.1518357552
  0
LWPOLYLINE
  5
2E4
330
1F
100
AcDbEntity
  8
0
  6
Continuous
 62
     7
370
    15
100
AcDbPolyline
 90
        9
 70
   128
 43
0.0
 10
138.6162125635
 20
111.9179935313
 10
138.5992624927
 20
112.0141022957
 10
138.5829606223
 20
112.1065602756
 10
138.5679253507
 20
112.191850797
 10
138.5547154713
 20
112.2667328573
 10
138.5438525248
 20
112.3283603347
 10
138.5357313919
 20
112.3743937469
 10
138.5306724477
 20
112.4030822075
 10
138.5288694072
 20
112.4133304811
  0
LINE
  5
2E5
330
1F
100
AcDbEntity
  8
0
  6
Continuous
 62
     7
370
    15
100
AcDbLine
 10
138.5288694072
 20
112.4133304811
 30
0.0
 11
142.7171387839
 21
113.1518357552
 31
0.0
  0
ARC
  5
2E6
330
1F
100
AcDbEntity
  8
0
  6
Continuous
 62
     7
370
    15
100
AcDbCircle
 10
138.703590117
 20
111.4226211639
 30
0.0
 40
1.006000001242804
100
AcDbArc
 50
100.0018306546
 51
179.9981693454
  0
ELLIPSE
  5
2E7
330
1F
100
AcDbEntity
  8
0
  6
Continuous
 62
     7
370
    15
100
AcDbEllipse
 10
144.7281388125
 20
113.1518758936
 30
0.0
 11
0.5030000000000143
 21
0.0
 31
0.0
210
0.0
220
0.0
230
1.0
 40
0.0087268678
 41
3.14159265359787
 42
3.150319299856131
  0
LINE
  5
2E8
330
1F
100
AcDbEntity
  8
0
  6
Continuous
 62
     7
370
    15
100
AcDbLine
 10
144.2251362968
 20
113.1518767334
 30
0.0
 11
144.2251362968
 21
148.8762856579
 31
0.0
  0
LWPOLYLINE
  5
2E9
330
1F
100
AcDbEntity
  8
0
  6
Continuous
 62
     7
370
    15
100
AcDbPolyline
 90
        9
 70
   128
 43
0.0
 10
176.0209248531
 20
176.0426820374
 10
176.0112577248
 20
176.0425926305
 10
175.9826363194
 20
176.0423467613
 10
175.9361558723
 20
176.0419369794
 10
175.8736045229
 20
176.041393087
 10
175.7973850834
 20
176.0407299853
 10
175.710425632
 20
176.0399700261
 10
175.6160714793
 20
176.0391430116
 10
175.5179436076
 20
176.0382861949
  0
ARC
  5
2EA
330
1F
100
AcDbEntity
  8
0
  6
Continuous
 62
     7
370
    15
100
AcDbCircle
 10
175.5179429473
 20
176.0382888913
 30
0.0
 40
0.5029999999999952
100
AcDbArc
 50
0.5
 51
90.0
  0
LINE
  5
2EB
330
1F
100
AcDbEntity
  8
0
  6
Continuous
 62
     7
370
    15
100
AcDbLine
 10
176.1153386104
 20
165.2237908102
 30
0.0
 11
189.9037425536
 21
165.2237908102
 31
0.0
  0
LINE
  5
2EC
330
1F
100
AcDbEntity
  8
0
  6
Continuous
 62
     7
370
    15
100
AcDbLine
 10
189.9037425536
 20
165.2237908102
 30
0.0
 11
189.9037425536
 21
164.7207872129
 31
0.0
  0
LWPOLYLINE
  5
2ED
330
1F
100
AcDbEntity
  8
0
  6
Continuous
 62
     7
370
    15
100
AcDbPolyline
 90
       10
 70
   128
 43
0.0
 10
176.1153386104
 20
165.2237908102
 10
176.1077650952
 20
165.2161465145
 10
176.0852680671
 20
165.193452046
 10
176.0485367048
 20
165.1564003087
 10
175.9986811447
 20
165.1061088896
 10
175.9372213054
 20
165.0441126085
 10
175.8660235572
 20
164.9722890115
 10
175.7872522938
 20
164.8928285695
 10
175.7032954264
 20
164.8081303693
 10
175.616708504
 20
164.7207872129
  0
ARC
  5
2EE
330
1F
100
AcDbEntity
  8
0
  6
Continuous
 62
     7
370
    15
100
AcDbCircle
 10
175.5179429473
 20
86.5042888913
 30
0.0
 40
0.5030000000000001
100
AcDbArc
 50
270.0
 51
359.5
  0
LWPOLYLINE
  5
2EF
330
1F
100
AcDbEntity
  8
0
  6
Continuous
 62
     7
370
    15
100
AcDbPolyline
 90
        9
 70
   128
 43
0.0
 10
176.0209248531
 20
86.499899172
 10
176.0112577248
 20
86.4999839223
 10
175.9826363194
 20
86.5002335168
 10
175.9361558723
 20
86.5006395734
 10
175.8736045229
 20
86.5011853284
 10
175.7973850834
 20
86.5018502927
 10
175.710425632
 20
86.5026093206
 10
175.6160714793
 20
86.5034326098
 10
175.5179436076
 20
86.5042884952
  0
LINE
  5
2F0
330
1F
100
AcDbEntity
  8
0
  6
Continuous
 62
     7
370
    15
100
AcDbLine
 10
189.9037425536
 20
97.3187894679
 30
0.0
 11
176.1153386104
 21
97.3187894679
 31
0.0
  0
LWPOLYLINE
  5
2F1
330
1F
100
AcDbEntity
  8
0
  6
Continuous
 62
     7
370
    15
100
AcDbPolyline
 90
        9
 70
   128
 43
0.0
 10
176.1153386104
 20
97.3187894679
 10
176.1057571638
 20
97.3284547336
 10
176.0773816276
 20
97.3570780016
 10
176.0313035119
 20
97.4035603113
 10
175.9692923296
 20
97.4661135233
 10
175.8937322664
 20
97.5423366881
 10
175.8075253236
 20
97.6292998648
 10
175.7139870095
 20
97.7236577428
 10
175.616708504
 20
97.8217893398
  0
LINE
  5
2F2
330
1F
100
AcDbEntity
  8
0
  6
Continuous
 62
     7
370
    15
100
AcDbLine
 10
189.9037425536
 20
97.3187894679
 30
0.0
 11
189.9037425536
 21
97.8217893398
 31
0.0
  0
LINE
  5
2F3
330
1F
100
AcDbEntity
  8
0
  6
Continuous
 62
     7
370
    15
100
AcDbLine
 10
176.1153386104
 20
97.3187894679
 30
0.0
 11
176.0209248531
 21
86.499899172
 31
0.0
  0
LINE
  5
2F4
330
1F
100
AcDbEntity
  8
0
  6
Continuous
 62
     7
370
    15
100
AcDbLine
 10
176.0209248531
 20
176.0426820374
 30
0.0
 11
176.1153386104
 21
165.2237908102
 31
0.0
  0
LWPOLYLINE
  5
2F5
330
1F
100
AcDbEntity
  8
0
  6
Continuous
 62
     7
370
    15
100
AcDbPolyline
 90
       10
 70
   128
 43
0.0
 10
190.5011394191
 20
153.9062918282
 10
190.4935640413
 20
153.8986475325
 10
190.4710670131
 20
153.875953064
 10
190.4343356508
 20
153.8389013267
 10
190.3844819534
 20
153.7886099077
 10
190.323022114
 20
153.7266136265
 10
190.2518243659
 20
153.6547900296
 10
190.1730512399
 20
153.5753221369
 10
190.089096235
 20
153.4906313873
 10
190.0025093126
 20
153.403288231
  0
LWPOLYLINE
  5
2F6
330
1F
100
AcDbEntity
  8
0
  6
Continuous
 62
     7
370
    15
100
AcDbPolyline
 90
        9
 70
   128
 43
0.0
 10
190.4067237991
 20
164.7251756049
 10
190.3970585334
 20
164.7250936485
 10
190.3684371281
 20
164.7248477793
 10
190.321956681
 20
164.7244379974
 10
190.259403469
 20
164.723894105
 10
190.1831840295
 20
164.7232310034
 10
190.096224578
 20
164.7224710441
 10
190.0018704253
 20
164.7216440297
 10
189.9037425536
 20
164.7207872129
  0
LINE
  5
2F7
330
1F
100
AcDbEntity
  8
0
  6
Continuous
 62
     7
370
    15
100
AcDbLine
 10
190.4067237991
 20
164.7251756049
 30
0.0
 11
190.5011394191
 21
153.9062918282
 31
0.0
  0
LINE
  5
2F8
330
1F
100
AcDbEntity
  8
0
  6
Continuous
 62
     7
370
    15
100
AcDbLine
 10
190.5011394191
 20
153.9062918282
 30
0.0
 11
214.343338659
 21
153.9062918282
 31
0.0
  0
LINE
  5
2F9
330
1F
100
AcDbEntity
  8
0
  6
Continuous
 62
     7
370
    15
100
AcDbLine
 10
214.343338659
 20
153.403288231
 30
0.0
 11
214.343338659
 21
153.9062918282
 31
0.0
  0
ARC
  5
2FA
330
1F
100
AcDbEntity
  8
0
  6
Continuous
 62
     7
370
    15
100
AcDbCircle
 10
189.9037429473
 20
164.7207888913
 30
0.0
 40
0.5030000000000427
100
AcDbArc
 50
0.5
 51
90.0
  0
LWPOLYLINE
  5
2FB
330
1F
100
AcDbEntity
  8
0
  6
Continuous
 62
     7
370
    15
100
AcDbPolyline
 90
        9
 70
   128
 43
0.0
 10
190.4067237991
 20
97.8173990852
 10
190.3970585334
 20
97.8174829043
 10
190.3684371281
 20
97.8177343614
 10
190.321956681
 20
97.8181385554
 10
190.259403469
 20
97.8186843104
 10
190.1831840295
 20
97.8193511373
 10
190.096224578
 20
97.8201092339
 10
190.0018704253
 20
97.8209325231
 10
189.9037425536
 20
97.8217893398
  0
ARC
  5
2FC
330
1F
100
AcDbEntity
  8
0
  6
Continuous
 62
     7
370
    15
100
AcDbCircle
 10
189.9037429473
 20
97.8217888913
 30
0.0
 40
0.5030000000000001
100
AcDbArc
 50
270.0
 51
359.5
  0
LWPOLYLINE
  5
2FD
330
1F
100
AcDbEntity
  8
0
  6
Continuous
 62
     7
370
    15
100
AcDbPolyline
 90
        9
 70
   128
 43
0.0
 10
190.5011394191
 20
108.6362884498
 10
190.4915579724
 20
108.6459555782
 10
190.4631824362
 20
108.6745769835
 10
190.4171043205
 20
108.7210611559
 10
190.3550931382
 20
108.7836125053
 10
190.2795330751
 20
108.8598356701
 10
190.1933261323
 20
108.9467988468
 10
190.0997878182
 20
109.0411567248
 10
190.0025093126
 20
109.1392883218
  0
LINE
  5
2FE
330
1F
100
AcDbEntity
  8
0
  6
Continuous
 62
     7
370
    15
100
AcDbLine
 10
214.343338659
 20
108.6362884498
 30
0.0
 11
214.343338659
 21
109.1392883218
 31
0.0
  0
LINE
  5
2FF
330
1F
100
AcDbEntity
  8
0
  6
Continuous
 62
     7
370
    15
100
AcDbLine
 10
214.343338659
 20
108.6362884498
 30
0.0
 11
190.5011394191
 21
108.6362884498
 31
0.0
  0
LINE
  5
300
330
1F
100
AcDbEntity
  8
0
  6
Continuous
 62
     7
370
    15
100
AcDbLine
 10
190.5011394191
 20
108.6362884498
 30
0.0
 11
190.4067237991
 21
97.8173990852
 31
0.0
  0
ARC
  5
301
330
1F
100
AcDbEntity
  8
0
  6
Continuous
 62
     7
370
    15
100
AcDbCircle
 10
214.3433388125
 20
153.6044888913
 30
0.0
 40
0.3018000000000143
100
AcDbArc
 50
0.0
 51
90.0
  0
LINE
  5
302
330
1F
100
AcDbEntity
  8
0
  6
Continuous
 62
     7
370
    15
100
AcDbLine
 10
214.6451388615
 20
153.60449116
 30
0.0
 11
214.6451388615
 21
153.403288231
 31
0.0
  0
LINE
  5
303
330
1F
100
AcDbEntity
  8
0
  6
Continuous
 62
     7
370
    15
100
AcDbLine
 10
214.343338659
 20
153.403288231
 30
0.0
 11
214.6451388615
 21
153.403288231
 31
0.0
  0
LINE
  5
304
330
1F
100
AcDbEntity
  8
0
  6
Continuous
 62
     7
370
    15
100
AcDbLine
 10
214.6451388615
 20
153.403288231
 30
0.0
 11
214.6451388615
 21
109.1392883218
 31
0.0
  0
LINE
  5
305
330
1F
100
AcDbEntity
  8
0
  6
Continuous
 62
     7
370
    15
100
AcDbLine
 10
214.343338659
 20
109.1392883218
 30
0.0
 11
214.6451388615
 21
109.1392883218
 31
0.0
  0
LINE
  5
306
330
1F
100
AcDbEntity
  8
0
  6
Continuous
 62
     7
370
    15
100
AcDbLine
 10
214.6451388615
 20
109.1392883218
 30
0.0
 11
214.6451388615
 21
108.9380891181
 31
0.0
  0
ARC
  5
307
330
1F
100
AcDbEntity
  8
0
  6
Continuous
 62
     7
370
    15
100
AcDbCircle
 10
214.3433388125
 20
108.9380888913
 30
0.0
 40
0.3018000000000143
100
AcDbArc
 50
270.0
 51
0.0
  0
ELLIPSE
  5
308
330
1F
100
AcDbEntity
  8
0
  6
Continuous
 62
     7
370
    15
100
AcDbEllipse
 10
138.6921771193
 20
111.4321978061
 30
0.0
 11
0.7706907151564906
 21
-0.6466862948395687
 31
0.0
210
0.0
220
0.0
230
1.0
 40
0.9999351162
 41
2.443492902706623
 42
3.839692404472979
  0
LINE
  5
309
330
1F
100
AcDbEntity
  8
0
  6
Continuous
 62
     7
370
    15
100
AcDbLine
 10
138.5174178648
 20
112.4229417301
 30
0.0
 11
138.5288694072
 21
112.4133304811
 31
0.0
  0
LINE
  5
30A
330
1F
100
AcDbEntity
  8
0
  6
Continuous
 62
     7
370
    15
100
AcDbLine
 10
137.6975932288
 20
111.4226528562
 30
0.0
 11
137.6861416864
 21
111.4322603799
 31
0.0
  0
LINE
  5
30B
330
1F
100
AcDbEntity
  8
0
  6
Continuous
 62
     7
370
    15
100
AcDbLine
 10
138.2005744743
 20
86.0012886233
 30
0.0
 11
138.1891601849
 21
86.0012886233
 31
0.0
  0
ELLIPSE
  5
30C
330
1F
100
AcDbEntity
  8
0
  6
Continuous
 62
     7
370
    15
100
AcDbEllipse
 10
138.1891579659
 20
86.5042888913
 30
0.0
 11
0.5030191534280561
 21
0.0
 31
0.0
210
0.0
220
0.0
230
1.0
 40
0.9999619231
 41
3.141592653580027
 42
4.712388980384704
  0
LINE
  5
30D
330
1F
100
AcDbEntity
  8
0
  6
Continuous
 62
     7
370
    15
100
AcDbLine
 10
137.6861416864
 20
86.5042884952
 30
0.0
 11
137.6975932288
 21
86.5042884952
 31
0.0
  0
LINE
  5
30E
330
1F
100
AcDbEntity
  8
0
  6
Continuous
 62
     7
370
    15
100
AcDbLine
 10
138.5174178648
 20
112.4229417301
 30
0.0
 11
142.7161404061
 21
113.1632872976
 31
0.0
  0
LINE
  5
30F
330
1F
100
AcDbEntity
  8
0
  6
Continuous
 62
     7
370
    15
100
AcDbLine
 10
142.7161404061
 20
113.1632872976
 30
0.0
 11
142.7171387839
 21
113.1518357552
 31
0.0
  0
LINE
  5
310
330
1F
100
AcDbEntity
  8
0
  6
Continuous
 62
     7
370
    15
100
AcDbLine
 10
144.2251362968
 20
113.1632872976
 30
0.0
 11
144.1168793607
 21
113.1632872976
 31
0.0
  0
LINE
  5
311
330
1F
100
AcDbEntity
  8
0
  6
Continuous
 62
     7
370
    15
100
AcDbLine
 10
143.9274259973
 20
113.1632872976
 30
0.0
 11
142.7161404061
 21
113.1632872976
 31
0.0
  0
LINE
  5
312
330
1F
100
AcDbEntity
  8
0
  6
Continuous
 62
     7
370
    15
100
AcDbLine
 10
137.6861416864
 20
108.6362884498
 30
0.0
 11
137.6861416864
 21
111.4322603799
 31
0.0
  0
LINE
  5
313
330
1F
100
AcDbEntity
  8
0
  6
Continuous
 62
     7
370
    15
100
AcDbLine
 10
137.6861416864
 20
86.5042884952
 30
0.0
 11
137.6861416864
 21
108.6362884498
 31
0.0
  0
LINE
  5
314
330
1F
100
AcDbEntity
  8
0
  6
Continuous
 62
     7
370
    15
100
AcDbLine
 10
139.0466326046
 20
86.0012886233
 30
0.0
 11
138.7302958536
 21
85.9486139498
 31
0.0
  0
LINE
  5
315
330
1F
100
AcDbEntity
  8
0
  6
Continuous
 62
     7
370
    15
100
AcDbLine
 10
138.7302958536
 20
85.9486139498
 30
0.0
 11
138.1987788844
 21
85.9486139498
 31
0.0
  0
LINE
  5
316
330
1F
100
AcDbEntity
  8
0
  6
Continuous
 62
     7
370
    15
100
AcDbLine
 10
138.2514544892
 20
86.0012886233
 30
0.0
 11
138.1987788844
 21
85.9486139498
 31
0.0
  0
LINE
  5
317
330
1F
100
AcDbEntity
  8
0
  6
Continuous
 62
     7
370
    15
100
AcDbLine
 10
142.0215972829
 20
85.9486139498
 30
0.0
 11
141.3894974756
 21
85.9486139498
 31
0.0
  0
LINE
  5
318
330
1F
100
AcDbEntity
  8
0
  6
Continuous
 62
     7
370
    15
100
AcDbLine
 10
141.3894974756
 20
85.9486139498
 30
0.0
 11
141.0731607246
 21
86.0012886233
 31
0.0
  0
LINE
  5
319
330
1F
100
AcDbEntity
  8
0
  6
Continuous
 62
     7
370
    15
100
AcDbLine
 10
142.0215972829
 20
85.9486139498
 30
0.0
 11
142.0215972829
 21
86.0012886233
 31
0.0
  0
ELLIPSE
  5
31A
330
1F
100
AcDbEntity
  8
0
  6
Continuous
 62
     7
370
    15
100
AcDbEllipse
 10
138.1988151178
 20
86.4516326707
 30
0.0
 11
-0.3557017974588348
 21
-0.3557017974588348
 31
0.0
210
0.0
220
0.0
230
1.0
 40
0.9999238505
 41
5.497825219993113
 42
7.068545394366102
  0
LINE
  5
31B
330
1F
100
AcDbEntity
  8
0
  6
Continuous
 62
     7
370
    15
100
AcDbLine
 10
144.2251362968
 20
148.8236100531
 30
0.0
 11
143.2287925053
 21
148.8236100531
 31
0.0
  0
LINE
  5
31C
330
1F
100
AcDbEntity
  8
0
  6
Continuous
 62
     7
370
    15
100
AcDbLine
 10
143.2287925053
 20
148.8236100531
 30
0.0
 11
141.3641133475
 21
146.9589308954
 31
0.0
  0
ELLIPSE
  5
31D
330
1F
100
AcDbEntity
  8
0
  6
Continuous
 62
     7
370
    15
100
AcDbEllipse
 10
141.0084386089
 20
147.3146326707
 30
0.0
 11
0.1924983537288369
 21
-0.4647321363065657
 31
0.0
210
0.0
220
0.0
230
1.0
 40
0.9999553905
 41
5.890501997412555
 42
6.675868616946589
  0
LINE
  5
31E
330
1F
100
AcDbEntity
  8
0
  6
Continuous
 62
     7
370
    15
100
AcDbLine
 10
141.0084524322
 20
146.8116105653
 30
0.0
 11
138.1987788844
 21
146.8116105653
 31
0.0
  0
LINE
  5
31F
330
1F
100
AcDbEntity
  8
0
  6
Continuous
 62
     7
370
    15
100
AcDbLine
 10
142.1339967418
 20
85.9486139498
 30
0.0
 11
142.0215972829
 21
85.9486139498
 31
0.0
  0
LINE
  5
320
330
1F
100
AcDbEntity
  8
0
  6
Continuous
 62
     8
370
    15
100
AcDbLine
 10
176.073909657
 20
169.9710474468
 30
0.0
 11
176.1813842821
 21
169.9659587002
 31
0.0
  0
LINE
  5
321
330
1F
100
AcDbEntity
  8
0
  6
Continuous
 62
     8
370
    15
100
AcDbLine
 10
190.4587698299
 20
158.7613360143
 30
0.0
 11
190.4665500987
 21
158.7609560347
 31
0.0
  0
ELLIPSE
  5
322
330
1F
100
AcDbEntity
  8
0
  6
Continuous
 62
     8
370
    15
100
AcDbEllipse
 10
144.3169492604
 20
86.6864912944
 30
0.0
 11
-7.310850094199850E-7
 21
1.100041886224318
 31
0.0
210
0.0
220
0.0
230
1.0
 40
0.0087265355
 41
3.141592647786745
 42
4.03996061249088
  0
LINE
  5
323
330
1F
100
AcDbEntity
  8
0
  6
Continuous
 62
     8
370
    15
100
AcDbLine
 10
144.2538433838
 20
85.6051393903
 30
0.0
 11
144.2556017208
 21
85.5864496089
 31
0.0
  0
LINE
  5
324
330
1F
100
AcDbEntity
  8
0
  6
Continuous
 62
     8
370
    15
100
AcDbLine
 10
144.2557358313
 20
85.5864496089
 30
0.0
 11
144.3168231416
 21
85.5864496089
 31
0.0
  0
ARC
  5
325
330
1F
100
AcDbEntity
  8
0
  6
Continuous
 62
     8
370
    15
100
AcDbCircle
 10
144.2169553407
 20
85.586454741
 30
0.0
 40
0.0999944608914742
100
AcDbArc
 50
359.9970593534
 51
69.6508517488
  0
ENDSEC
  0
SECTION
  2
OBJECTS
  0
DICTIONARY
  5
C
330
0
100
AcDbDictionary
281
     1
  3
ACAD_GROUP
350
D
  3
ACAD_LAYOUT
350
1A
  3
ACAD_MLINESTYLE
350
17
  3
ACAD_PLOTSETTINGS
350
19
  3
ACAD_PLOTSTYLENAME
350
E
  3
ACAD_SCALELIST
350
47
  0
DICTIONARY
  5
D
102
{ACAD_REACTORS
330
C
102
}
330
C
100
AcDbDictionary
281
     1
  0
DICTIONARY
  5
1A
102
{ACAD_REACTORS
330
C
102
}
330
C
100
AcDbDictionary
281
     1
  3
Layout1
350
1E
  3
Layout2
350
26
  3
Model
350
22
  0
DICTIONARY
  5
17
102
{ACAD_REACTORS
330
C
102
}
330
C
100
AcDbDictionary
281
     1
  3
Standard
350
18
  0
DICTIONARY
  5
19
102
{ACAD_REACTORS
330
C
102
}
330
C
100
AcDbDictionary
281
     1
  0
ACDBDICTIONARYWDFLT
  5
E
102
{ACAD_REACTORS
330
C
102
}
330
C
100
AcDbDictionary
281
     1
  3
Normal
350
F
100
AcDbDictionaryWithDefault
340
F
  0
DICTIONARY
  5
47
102
{ACAD_REACTORS
330
C
102
}
330
C
100
AcDbDictionary
281
     1
  3
A0
350
48
  3
A1
350
49
  3
A2
350
4A
  3
A3
350
4B
  3
A4
350
4C
  3
A5
350
4D
  3
A6
350
4E
  3
A7
350
4F
  3
A8
350
50
  3
A9
350
51
  3
B0
350
52
  3
B1
350
53
  3
B2
350
54
  3
B3
350
55
  3
B4
350
56
  3
B5
350
57
  3
B6
350
58
  3
B7
350
59
  3
B8
350
5A
  3
B9
350
5B
  3
C0
350
5C
  3
C1
350
5D
  3
C2
350
5E
  3
C3
350
5F
  3
C4
350
60
  3
C5
350
61
  3
C6
350
62
  3
C7
350
63
  3
C8
350
64
  3
C9
350
65
  3
D0
350
66
  3
D1
350
67
  3
D2
350
68
  0
LAYOUT
  5
1E
102
{ACAD_REACTORS
330
1A
102
}
330
1A
100
AcDbPlotSettings
  1

  2
none_device
  4

  6

 40
0.0
 41
0.0
 42
0.0
 43
0.0
 44
0.0
 45
0.0
 46
0.0
 47
0.0
 48
0.0
 49
0.0
140
0.0
141
0.0
142
1.0
143
1.0
 70
   688
 72
     1
 73
     0
 74
     5
  7

 75
    16
147
1.0
148
0.0
149
0.0
100
AcDbLayout
  1
Layout1
 70
     1
 71
     1
 10
0.0
 20
0.0
 11
420.0
 21
297.0
 12
0.0
 22
0.0
 32
0.0
 14
1.0000000000E+20
 24
1.0000000000E+20
 34
1.0000000000E+20
 15
-1.0000000000E+20
 25
-1.0000000000E+20
 35
-1.0000000000E+20
146
0.0
 13
0.0
 23
0.0
 33
0.0
 16
1.0
 26
0.0
 36
0.0
 17
0.0
 27
1.0
 37
0.0
 76
     0
330
1B
  0
LAYOUT
  5
26
102
{ACAD_REACTORS
330
1A
102
}
330
1A
100
AcDbPlotSettings
  1

  2
none_device
  4

  6

 40
0.0
 41
0.0
 42
0.0
 43
0.0
 44
0.0
 45
0.0
 46
0.0
 47
0.0
 48
0.0
 49
0.0
140
0.0
141
0.0
142
1.0
143
1.0
 70
   688
 72
     1
 73
     0
 74
     5
  7

 75
    16
147
1.0
148
0.0
149
0.0
100
AcDbLayout
  1
Layout2
 70
     1
 71
     2
 10
0.0
 20
0.0
 11
0.0
 21
0.0
 12
0.0
 22
0.0
 32
0.0
 14
0.0
 24
0.0
 34
0.0
 15
0.0
 25
0.0
 35
0.0
146
0.0
 13
0.0
 23
0.0
 33
0.0
 16
1.0
 26
0.0
 36
0.0
 17
0.0
 27
1.0
 37
0.0
 76
     0
330
23
  0
LAYOUT
  5
22
102
{ACAD_REACTORS
330
1A
102
}
330
1A
100
AcDbPlotSettings
  1

  2
none_device
  4
Letter_(8.50_x_11.00_Inches)
  6

 40
6.35
 41
6.35
 42
6.35000508
 43
6.35000508
 44
215.9
 45
279.4
 46
0.0
 47
0.0
 48
0.0
 49
0.0
140
0.0
141
0.0
142
1.0
143
1.0
 70
  1712
 72
     1
 73
     0
 74
     0
  7

 75
     0
147
1.0
148
0.0
149
0.0
100
AcDbLayout
  1
Model
 70
     1
 71
     0
 10
0.0
 20
0.0
 11
297.0
 21
210.0
 12
0.0
 22
0.0
 32
0.0
 14
0.0
 24
0.0
 34
0.0
 15
297.0
 25
210.0
 35
0.0
146
0.0
 13
0.0
 23
0.0
 33
0.0
 16
1.0
 26
0.0
 36
0.0
 17
0.0
 27
1.0
 37
0.0
 76
     0
330
1F
331
29
  0
MLINESTYLE
  5
18
102
{ACAD_REACTORS
330
17
102
}
330
17
100
AcDbMlineStyle
  2
Standard
 70
     0
  3

 62
   256
 51
90.0
 52
90.0
 71
     2
 49
0.5
 62
   256
  6
BYLAYER
 49
-0.5
 62
   256
  6
BYLAYER
  0
ACDBPLACEHOLDER
  5
F
102
{ACAD_REACTORS
330
E
102
}
330
E
  0
SCALE
  5
48
102
{ACAD_REACTORS
330
47
102
}
330
47
100
AcDbScale
 70
     0
300
1:1
140
1.0
141
1.0
290
     1
  0
SCALE
  5
49
102
{ACAD_REACTORS
330
47
102
}
330
47
100
AcDbScale
 70
     0
300
1:2
140
1.0
141
2.0
290
     0
  0
SCALE
  5
4A
102
{ACAD_REACTORS
330
47
102
}
330
47
100
AcDbScale
 70
     0
300
1:4
140
1.0
141
4.0
290
     0
  0
SCALE
  5
4B
102
{ACAD_REACTORS
330
47
102
}
330
47
100
AcDbScale
 70
     0
300
1:5
140
1.0
141
5.0
290
     0
  0
SCALE
  5
4C
102
{ACAD_REACTORS
330
47
102
}
330
47
100
AcDbScale
 70
     0
300
1:8
140
1.0
141
8.0
290
     0
  0
SCALE
  5
4D
102
{ACAD_REACTORS
330
47
102
}
330
47
100
AcDbScale
 70
     0
300
1:10
140
1.0
141
10.0
290
     0
  0
SCALE
  5
4E
102
{ACAD_REACTORS
330
47
102
}
330
47
100
AcDbScale
 70
     0
300
1:16
140
1.0
141
16.0
290
     0
  0
SCALE
  5
4F
102
{ACAD_REACTORS
330
47
102
}
330
47
100
AcDbScale
 70
     0
300
1:20
140
1.0
141
20.0
290
     0
  0
SCALE
  5
50
102
{ACAD_REACTORS
330
47
102
}
330
47
100
AcDbScale
 70
     0
300
1:30
140
1.0
141
30.0
290
     0
  0
SCALE
  5
51
102
{ACAD_REACTORS
330
47
102
}
330
47
100
AcDbScale
 70
     0
300
1:40
140
1.0
141
40.0
290
     0
  0
SCALE
  5
52
102
{ACAD_REACTORS
330
47
102
}
330
47
100
AcDbScale
 70
     0
300
1:50
140
1.0
141
50.0
290
     0
  0
SCALE
  5
53
102
{ACAD_REACTORS
330
47
102
}
330
47
100
AcDbScale
 70
     0
300
1:100
140
1.0
141
100.0
290
     0
  0
SCALE
  5
54
102
{ACAD_REACTORS
330
47
102
}
330
47
100
AcDbScale
 70
     0
300
2:1
140
2.0
141
1.0
290
     0
  0
SCALE
  5
55
102
{ACAD_REACTORS
330
47
102
}
330
47
100
AcDbScale
 70
     0
300
4:1
140
4.0
141
1.0
290
     0
  0
SCALE
  5
56
102
{ACAD_REACTORS
330
47
102
}
330
47
100
AcDbScale
 70
     0
300
8:1
140
8.0
141
1.0
290
     0
  0
SCALE
  5
57
102
{ACAD_REACTORS
330
47
102
}
330
47
100
AcDbScale
 70
     0
300
10:1
140
10.0
141
1.0
290
     0
  0
SCALE
  5
58
102
{ACAD_REACTORS
330
47
102
}
330
47
100
AcDbScale
 70
     0
300
100:1
140
100.0
141
1.0
290
     0
  0
SCALE
  5
59
102
{ACAD_REACTORS
330
47
102
}
330
47
100
AcDbScale
 70
     0
300
1/128" = 1'-0"
140
0.0078125
141
12.0
290
     0
  0
SCALE
  5
5A
102
{ACAD_REACTORS
330
47
102
}
330
47
100
AcDbScale
 70
     0
300
1/64" = 1'-0"
140
0.015625
141
12.0
290
     0
  0
SCALE
  5
5B
102
{ACAD_REACTORS
330
47
102
}
330
47
100
AcDbScale
 70
     0
300
1/32" = 1'-0"
140
0.03125
141
12.0
290
     0
  0
SCALE
  5
5C
102
{ACAD_REACTORS
330
47
102
}
330
47
100
AcDbScale
 70
     0
300
1/16" = 1'-0"
140
0.0625
141
12.0
290
     0
  0
SCALE
  5
5D
102
{ACAD_REACTORS
330
47
102
}
330
47
100
AcDbScale
 70
     0
300
3/32" = 1'-0"
140
0.09375
141
12.0
290
     0
  0
SCALE
  5
5E
102
{ACAD_REACTORS
330
47
102
}
330
47
100
AcDbScale
 70
     0
300
1/8" = 1'-0"
140
0.125
141
12.0
290
     0
  0
SCALE
  5
5F
102
{ACAD_REACTORS
330
47
102
}
330
47
100
AcDbScale
 70
     0
300
3/16" = 1'-0"
140
0.1875
141
12.0
290
     0
  0
SCALE
  5
60
102
{ACAD_REACTORS
330
47
102
}
330
47
100
AcDbScale
 70
     0
300
1/4" = 1'-0"
140
0.25
141
12.0
290
     0
  0
SCALE
  5
61
102
{ACAD_REACTORS
330
47
102
}
330
47
100
AcDbScale
 70
     0
300
3/8" = 1'-0"
140
0.375
141
12.0
290
     0
  0
SCALE
  5
62
102
{ACAD_REACTORS
330
47
102
}
330
47
100
AcDbScale
 70
     0
300
1/2" = 1'-0"
140
0.5
141
12.0
290
     0
  0
SCALE
  5
63
102
{ACAD_REACTORS
330
47
102
}
330
47
100
AcDbScale
 70
     0
300
3/4" = 1'-0"
140
0.75
141
12.0
290
     0
  0
SCALE
  5
64
102
{ACAD_REACTORS
330
47
102
}
330
47
100
AcDbScale
 70
     0
300
1" = 1'-0"
140
1.0
141
12.0
290
     0
  0
SCALE
  5
65
102
{ACAD_REACTORS
330
47
102
}
330
47
100
AcDbScale
 70
     0
300
1-1/2" = 1'-0"
140
1.5
141
12.0
290
     0
  0
SCALE
  5
66
102
{ACAD_REACTORS
330
47
102
}
330
47
100
AcDbScale
 70
     0
300
3" = 1'-0"
140
3.0
141
12.0
290
     0
  0
SCALE
  5
67
102
{ACAD_REACTORS
330
47
102
}
330
47
100
AcDbScale
 70
     0
300
6" = 1'-0"
140
6.0
141
12.0
290
     0
  0
SCALE
  5
68
102
{ACAD_REACTORS
330
47
102
}
330
47
100
AcDbScale
 70
     0
300
1'-0" = 1'-0"
140
12.0
141
12.0
290
     0
  0
ENDSEC
  0
EOF
